  0
SECTION
  2
HEADER
  9
$ACADVER
  1
AC1015
  9
$ACADMAINTVER
 70
     6
  9
$DWGCODEPAGE
  3
ANSI_1254
  9
$INSBASE
 10
0.0
 20
0.0
 30
0.0
  9
$EXTMIN
 10
0.0
 20
0.0
 30
0.0
  9
$EXTMAX
 10
279.4
 20
215.9
 30
0.0
  9
$LIMMIN
 10
0.0
 20
0.0
  9
$LIMMAX
 10
279.4
 20
215.9
  9
$ORTHOMODE
 70
     0
  9
$REGENMODE
 70
     1
  9
$FILLMODE
 70
     1
  9
$QTEXTMODE
 70
     0
  9
$MIRRTEXT
 70
     1
  9
$LTSCALE
 40
1.0
  9
$ATTMODE
 70
     1
  9
$TEXTSIZE
 40
3.5
  9
$TRACEWID
 40
1.0
  9
$TEXTSTYLE
  7
Standard
  9
$CLAYER
  8
0
  9
$CELTYPE
  6
ByLayer
  9
$CECOLOR
 62
   256
  9
$CELTSCALE
 40
1.0
  9
$DISPSILH
 70
     0
  9
$DIMSCALE
 40
1.0
  9
$DIMASZ
 40
3.5
  9
$DIMEXO
 40
1.0
  9
$DIMDLI
 40
3.75
  9
$DIMRND
 40
0.0
  9
$DIMDLE
 40
0.0
  9
$DIMEXE
 40
1.0
  9
$DIMTP
 40
0.0
  9
$DIMTM
 40
0.0
  9
$DIMTXT
 40
3.5
  9
$DIMCEN
 40
2.5
  9
$DIMTSZ
 40
0.0
  9
$DIMTOL
 70
     0
  9
$DIMLIM
 70
     0
  9
$DIMTIH
 70
     1
  9
$DIMTOH
 70
     1
  9
$DIMSE1
 70
     0
  9
$DIMSE2
 70
     0
  9
$DIMTAD
 70
     1
  9
$DIMZIN
 70
     0
  9
$DIMBLK
  1

  9
$DIMASO
 70
     1
  9
$DIMSHO
 70
     1
  9
$DIMPOST
  1

  9
$DIMAPOST
  1

  9
$DIMALT
 70
     0
  9
$DIMALTD
 70
     3
  9
$DIMALTF
 40
0.0393700787
  9
$DIMLFAC
 40
1.0
  9
$DIMTOFL
 70
     1
  9
$DIMTVP
 40
0.0
  9
$DIMTIX
 70
     0
  9
$DIMSOXD
 70
     0
  9
$DIMSAH
 70
     0
  9
$DIMBLK1
  1

  9
$DIMBLK2
  1

  9
$DIMSTYLE
  2
ISO-25
  9
$DIMCLRD
 70
     0
  9
$DIMCLRE
 70
     0
  9
$DIMCLRT
 70
     0
  9
$DIMTFAC
 40
1.0
  9
$DIMGAP
 40
1.524
  9
$DIMJUST
 70
     0
  9
$DIMSD1
 70
     0
  9
$DIMSD2
 70
     0
  9
$DIMTOLJ
 70
     0
  9
$DIMTZIN
 70
     0
  9
$DIMALTZ
 70
     0
  9
$DIMALTTZ
 70
     0
  9
$DIMUPT
 70
     0
  9
$DIMDEC
 70
     2
  9
$DIMTDEC
 70
     2
  9
$DIMALTU
 70
     2
  9
$DIMALTTD
 70
     3
  9
$DIMTXSTY
  7
Standard
  9
$DIMAUNIT
 70
     0
  9
$DIMADEC
 70
     2
  9
$DIMALTRND
 40
0.0
  9
$DIMAZIN
 70
     0
  9
$DIMDSEP
 70
    44
  9
$DIMATFIT
 70
     3
  9
$DIMFRAC
 70
     0
  9
$DIMLDRBLK
  1

  9
$DIMLUNIT
 70
     2
  9
$DIMLWD
 70
    -2
  9
$DIMLWE
 70
    -2
  9
$DIMTMOVE
 70
     0
  9
$LUNITS
 70
     2
  9
$LUPREC
 70
     2
  9
$SKETCHINC
 40
1.0
  9
$FILLETRAD
 40
10.0
  9
$AUNITS
 70
     0
  9
$AUPREC
 70
     2
  9
$MENU
  1
.
  9
$ELEVATION
 40
0.0
  9
$PELEVATION
 40
0.0
  9
$THICKNESS
 40
0.0
  9
$LIMCHECK
 70
     0
  9
$CHAMFERA
 40
0.0
  9
$CHAMFERB
 40
0.0
  9
$CHAMFERC
 40
0.0
  9
$CHAMFERD
 40
0.0
  9
$SKPOLY
 70
     0
  9
$TDCREATE
 40
2459741.603160382
  9
$TDUCREATE
 40
2459741.478160382
  9
$TDUPDATE
 40
2459741.603160567
  9
$TDUUPDATE
 40
2459741.478160567
  9
$TDINDWG
 40
0.0000000116
  9
$TDUSRTIMER
 40
0.0000000116
  9
$USRTIMER
 70
     1
  9
$ANGBASE
 50
0.0
  9
$ANGDIR
 70
     0
  9
$PDMODE
 70
     0
  9
$PDSIZE
 40
-1.0
  9
$PLINEWID
 40
0.0
  9
$SPLFRAME
 70
     0
  9
$SPLINETYPE
 70
     6
  9
$SPLINESEGS
 70
     8
  9
$HANDSEED
  5
12E
  9
$SURFTAB1
 70
     6
  9
$SURFTAB2
 70
     6
  9
$SURFTYPE
 70
     6
  9
$SURFU
 70
     6
  9
$SURFV
 70
     6
  9
$UCSBASE
  2

  9
$UCSNAME
  2

  9
$UCSORG
 10
0.0
 20
0.0
 30
0.0
  9
$UCSXDIR
 10
1.0
 20
0.0
 30
0.0
  9
$UCSYDIR
 10
0.0
 20
1.0
 30
0.0
  9
$UCSORTHOREF
  2

  9
$UCSORTHOVIEW
 70
     0
  9
$UCSORGTOP
 10
0.0
 20
0.0
 30
0.0
  9
$UCSORGBOTTOM
 10
0.0
 20
0.0
 30
0.0
  9
$UCSORGLEFT
 10
0.0
 20
0.0
 30
0.0
  9
$UCSORGRIGHT
 10
0.0
 20
0.0
 30
0.0
  9
$UCSORGFRONT
 10
0.0
 20
0.0
 30
0.0
  9
$UCSORGBACK
 10
0.0
 20
0.0
 30
0.0
  9
$PUCSBASE
  2

  9
$PUCSNAME
  2

  9
$PUCSORG
 10
0.0
 20
0.0
 30
0.0
  9
$PUCSXDIR
 10
1.0
 20
0.0
 30
0.0
  9
$PUCSYDIR
 10
0.0
 20
1.0
 30
0.0
  9
$PUCSORTHOREF
  2

  9
$PUCSORTHOVIEW
 70
     0
  9
$PUCSORGTOP
 10
0.0
 20
0.0
 30
0.0
  9
$PUCSORGBOTTOM
 10
0.0
 20
0.0
 30
0.0
  9
$PUCSORGLEFT
 10
0.0
 20
0.0
 30
0.0
  9
$PUCSORGRIGHT
 10
0.0
 20
0.0
 30
0.0
  9
$PUCSORGFRONT
 10
0.0
 20
0.0
 30
0.0
  9
$PUCSORGBACK
 10
0.0
 20
0.0
 30
0.0
  9
$USERI1
 70
     0
  9
$USERI2
 70
     0
  9
$USERI3
 70
     0
  9
$USERI4
 70
     0
  9
$USERI5
 70
     0
  9
$USERR1
 40
0.0
  9
$USERR2
 40
0.0
  9
$USERR3
 40
0.0
  9
$USERR4
 40
0.0
  9
$USERR5
 40
0.0
  9
$WORLDVIEW
 70
     1
  9
$SHADEDGE
 70
     3
  9
$SHADEDIF
 70
    70
  9
$TILEMODE
 70
     1
  9
$MAXACTVP
 70
    64
  9
$PINSBASE
 10
0.0
 20
0.0
 30
0.0
  9
$PLIMCHECK
 70
     0
  9
$PEXTMIN
 10
1.0000000000E+20
 20
1.0000000000E+20
 30
1.0000000000E+20
  9
$PEXTMAX
 10
-1.0000000000E+20
 20
-1.0000000000E+20
 30
-1.0000000000E+20
  9
$PLIMMIN
 10
0.0
 20
0.0
  9
$PLIMMAX
 10
420.0
 20
297.0
  9
$UNITMODE
 70
     0
  9
$VISRETAIN
 70
     1
  9
$PLINEGEN
 70
     0
  9
$PSLTSCALE
 70
     1
  9
$TREEDEPTH
 70
  3020
  9
$CMLSTYLE
  2
Standard
  9
$CMLJUST
 70
     0
  9
$CMLSCALE
 40
20.0
  9
$PROXYGRAPHICS
 70
     1
  9
$MEASUREMENT
 70
     1
  9
$CELWEIGHT
370
    -1
  9
$ENDCAPS
280
     0
  9
$JOINSTYLE
280
     0
  9
$LWDISPLAY
290
     1
  9
$INSUNITS
 70
     4
  9
$HYPERLINKBASE
  1

  9
$STYLESHEET
  1

  9
$XEDIT
290
     1
  9
$CEPSNTYPE
380
     0
  9
$PSTYLEMODE
290
     1
  9
$FINGERPRINTGUID
  2
{da8b8982-f7d7-40e6-b30f-984a630243f8}
  9
$VERSIONGUID
  2
{FAEB1C32-E019-11D5-929B-00C0DF256EC4}
  9
$EXTNAMES
290
     1
  9
$PSVPSCALE
 40
0.0
  9
$OLESTARTUP
290
     0
  0
ENDSEC
  0
SECTION
  2
CLASSES
  0
CLASS
  1
ACDBDICTIONARYWDFLT
  2
AcDbDictionaryWithDefault
  3
ObjectDBX Classes
 90
        0
280
     0
281
     0
  0
CLASS
  1
VISUALSTYLE
  2
AcDbVisualStyle
  3
ObjectDBX Classes
 90
     4095
280
     0
281
     0
  0
CLASS
  1
MATERIAL
  2
AcDbMaterial
  3
ObjectDBX Classes
 90
     1153
280
     0
281
     0
  0
CLASS
  1
SCALE
  2
AcDbScale
  3
ObjectDBX Classes
 90
     1153
280
     0
281
     0
  0
CLASS
  1
TABLESTYLE
  2
AcDbTableStyle
  3
ObjectDBX Classes
 90
     4095
280
     0
281
     0
  0
CLASS
  1
MLEADERSTYLE
  2
AcDbMLeaderStyle
  3
ACDB_MLEADERSTYLE_CLASS
 90
     4095
280
     0
281
     0
  0
CLASS
  1
SUN
  2
AcDbSun
  3
SCENEOE
 90
     1153
280
     0
281
     0
  0
CLASS
  1
ACDBPLACEHOLDER
  2
AcDbPlaceHolder
  3
ObjectDBX Classes
 90
        0
280
     0
281
     0
  0
CLASS
  1
LAYOUT
  2
AcDbLayout
  3
ObjectDBX Classes
 90
        0
280
     0
281
     0
  0
ENDSEC
  0
SECTION
  2
TABLES
  0
TABLE
  2
VPORT
  5
8
330
0
100
AcDbSymbolTable
 70
     1
  0
VPORT
  5
29
330
8
100
AcDbSymbolTableRecord
100
AcDbViewportTableRecord
  2
*Active
 70
     0
 10
0.0
 20
0.0
 11
1.0
 21
1.0
 12
139.7
 22
107.95
 13
0.0
 23
0.0
 14
10.0
 24
10.0
 15
10.0
 25
10.0
 16
0.0
 26
0.0
 36
1.0
 17
0.0
 27
0.0
 37
0.0
 40
215.9
 41
1.2941176471
 42
50.0
 43
0.0
 44
0.0
 50
0.0
 51
0.0
 71
     0
 72
  2000
 73
     1
 74
     3
 75
     0
 76
     0
 77
     0
 78
     0
281
     0
 65
     1
110
0.0
120
0.0
130
0.0
111
1.0
121
0.0
131
0.0
112
0.0
122
1.0
132
0.0
 79
     0
146
0.0
  0
ENDTAB
  0
TABLE
  2
LTYPE
  5
5
330
0
100
AcDbSymbolTable
 70
     6
  0
LTYPE
  5
14
330
5
100
AcDbSymbolTableRecord
100
AcDbLinetypeTableRecord
  2
ByBlock
 70
     0
  3

 72
    65
 73
     0
 40
0.0
  0
LTYPE
  5
15
330
5
100
AcDbSymbolTableRecord
100
AcDbLinetypeTableRecord
  2
ByLayer
 70
     0
  3

 72
    65
 73
     0
 40
0.0
  0
LTYPE
  5
16
330
5
100
AcDbSymbolTableRecord
100
AcDbLinetypeTableRecord
  2
Continuous
 70
     0
  3
Solid line
 72
    65
 73
     0
 40
0.0
  0
LTYPE
  5
6E
330
5
100
AcDbSymbolTableRecord
100
AcDbLinetypeTableRecord
  2
HIDDEN
 70
     0
  3
Hidden __ __ __ __ __ __ __ __ __ __ __ __ __ __
 72
    65
 73
     2
 40
1.905
 49
1.27
 74
     0
 49
-0.635
 74
     0
  0
LTYPE
  5
6F
330
5
100
AcDbSymbolTableRecord
100
AcDbLinetypeTableRecord
  2
PHANTOM
 70
     0
  3
Phantom ______  __  __  ______  __  __  ______
 72
    65
 73
     6
 40
12.7
 49
6.35
 74
     0
 49
-1.27
 74
     0
 49
1.27
 74
     0
 49
-1.27
 74
     0
 49
1.27
 74
     0
 49
-1.27
 74
     0
  0
LTYPE
  5
70
330
5
100
AcDbSymbolTableRecord
100
AcDbLinetypeTableRecord
  2
CENTER
 70
     0
  3
Center ____ _ ____ _ ____ _ ____ _ ____ _ ____
 72
    65
 73
     4
 40
10.16
 49
6.35
 74
     0
 49
-1.27
 74
     0
 49
1.27
 74
     0
 49
-1.27
 74
     0
  0
LTYPE
  5
71
330
5
100
AcDbSymbolTableRecord
100
AcDbLinetypeTableRecord
  2
CENTERX2
 70
     0
  3
Center (2x) ________  __  ________  __  _____
 72
    65
 73
     4
 40
20.32
 49
12.7
 74
     0
 49
-2.54
 74
     0
 49
2.54
 74
     0
 49
-2.54
 74
     0
  0
LTYPE
  5
72
330
5
100
AcDbSymbolTableRecord
100
AcDbLinetypeTableRecord
  2
DOT2
 70
     0
  3
Dot (.5x) ........................................
 72
    65
 73
     2
 40
0.635
 49
0.0
 74
     0
 49
-0.635
 74
     0
  0
ENDTAB
  0
TABLE
  2
LAYER
  5
2
330
0
100
AcDbSymbolTable
 70
    17
  0
LAYER
  5
10
330
2
100
AcDbSymbolTableRecord
100
AcDbLayerTableRecord
  2
0
 70
     0
 62
     7
  6
Continuous
370
    -3
390
F
  0
LAYER
  5
73
330
2
100
AcDbSymbolTableRecord
100
AcDbLayerTableRecord
  2
FORMAT
 70
     0
 62
     7
  6
Continuous
370
    -3
390
F
  0
LAYER
  5
74
330
2
100
AcDbSymbolTableRecord
100
AcDbLayerTableRecord
  2
YARDIMCI_GEOMETRI
 70
     0
 62
    -6
  6
Continuous
290
     0
370
    -3
390
F
  0
LAYER
  5
75
330
2
100
AcDbSymbolTableRecord
100
AcDbLayerTableRecord
  2
SAYFA_CERCEVESI
 70
     0
 62
     7
  6
Continuous
370
    25
390
F
  0
LAYER
  5
76
330
2
100
AcDbSymbolTableRecord
100
AcDbLayerTableRecord
  2
ANTET
 70
     0
 62
     7
  6
Continuous
370
    -3
390
F
  0
LAYER
  5
77
330
2
100
AcDbSymbolTableRecord
100
AcDbLayerTableRecord
  2
OLCU
 70
     0
 62
   150
  6
Continuous
370
    -3
390
F
  0
LAYER
  5
78
330
2
100
AcDbSymbolTableRecord
100
AcDbLayerTableRecord
  2
METIN
 70
     0
 62
    96
  6
Continuous
370
    -3
390
F
  0
LAYER
  5
79
330
2
100
AcDbSymbolTableRecord
100
AcDbLayerTableRecord
  2
BALON
 70
     0
 62
     5
  6
Continuous
370
    -3
390
F
  0
LAYER
  5
7A
330
2
100
AcDbSymbolTableRecord
100
AcDbLayerTableRecord
  2
VURGU
 70
     0
 62
     7
  6
Continuous
370
    -3
390
F
  0
LAYER
  5
7B
330
2
100
AcDbSymbolTableRecord
100
AcDbLayerTableRecord
  2
SILIK
 70
     0
 62
     7
  6
Continuous
370
    -3
390
F
  0
LAYER
  5
7C
330
2
100
AcDbSymbolTableRecord
100
AcDbLayerTableRecord
  2
MODEL
 70
     0
 62
     7
  6
Continuous
370
    -3
390
F
  0
LAYER
  5
7D
330
2
100
AcDbSymbolTableRecord
100
AcDbLayerTableRecord
  2
DETAYLANDıRMA
 70
     0
 62
   190
  6
Continuous
370
    -3
390
F
  0
LAYER
  5
7E
330
2
100
AcDbSymbolTableRecord
100
AcDbLayerTableRecord
  2
TOLERANS
 70
     0
 62
   230
  6
Continuous
370
    -3
390
F
  0
LAYER
  5
7F
330
2
100
AcDbSymbolTableRecord
100
AcDbLayerTableRecord
  2
MERKEZ_CIZGILERI
 70
     0
 62
    30
  6
Continuous
370
    -3
390
F
  0
LAYER
  5
80
330
2
100
AcDbSymbolTableRecord
100
AcDbLayerTableRecord
  2
KESIT-DETAY_CIZGILERI
 70
     0
 62
     7
  6
Continuous
370
    -3
390
F
  0
LAYER
  5
81
330
2
100
AcDbSymbolTableRecord
100
AcDbLayerTableRecord
  2
\U+041E\U+0421\U+0415\U+0412\U+042B\U+0415
 70
     0
 62
     7
  6
Continuous
370
    -3
390
F
  0
LAYER
  5
82
330
2
100
AcDbSymbolTableRecord
100
AcDbLayerTableRecord
  2
\U+0412\U+041E\U+0414\U+042F\U+041D\U+042B\U+0415_\U+0417\U+041D\U+0410\U+041A\U+0418
 70
     0
 62
    11
  6
Continuous
370
    -3
390
F
  0
ENDTAB
  0
TABLE
  2
STYLE
  5
3
330
0
100
AcDbSymbolTable
 70
     1
  0
STYLE
  5
11
330
3
100
AcDbSymbolTableRecord
100
AcDbTextStyleTableRecord
  2
Standard
 70
     0
 40
0.0
 41
1.0
 50
0.0
 71
     0
 42
3.5
  3
txt
  4

  0
ENDTAB
  0
TABLE
  2
VIEW
  5
6
330
0
100
AcDbSymbolTable
 70
     0
  0
ENDTAB
  0
TABLE
  2
UCS
  5
7
330
0
100
AcDbSymbolTable
 70
     0
  0
ENDTAB
  0
TABLE
  2
APPID
  5
9
330
0
100
AcDbSymbolTable
 70
     1
  0
APPID
  5
12
330
9
100
AcDbSymbolTableRecord
100
AcDbRegAppTableRecord
  2
ACAD
 70
     0
  0
ENDTAB
  0
TABLE
  2
DIMSTYLE
  5
A
330
0
100
AcDbSymbolTable
 70
     1
100
AcDbDimStyleTable
  0
DIMSTYLE
105
27
330
A
100
AcDbSymbolTableRecord
100
AcDbDimStyleTableRecord
  2
ISO-25
 70
     0
 41
2.5
 42
0.625
 43
3.75
 44
1.25
 73
     0
 74
     0
 77
     1
 78
     8
140
2.5
141
2.5
143
0.0393700787
147
0.625
171
     3
172
     1
178
     0
271
     2
272
     2
274
     3
278
    44
283
     0
284
     8
340
11
  0
ENDTAB
  0
TABLE
  2
BLOCK_RECORD
  5
1
330
0
100
AcDbSymbolTable
 70
     5
  0
BLOCK_RECORD
  5
1F
330
1
100
AcDbSymbolTableRecord
100
AcDbBlockTableRecord
  2
*Model_Space
340
22
  0
BLOCK_RECORD
  5
1B
330
1
100
AcDbSymbolTableRecord
100
AcDbBlockTableRecord
  2
*Paper_Space
340
1E
  0
BLOCK_RECORD
  5
23
330
1
100
AcDbSymbolTableRecord
100
AcDbBlockTableRecord
  2
*Paper_Space0
340
26
  0
BLOCK_RECORD
  5
AA
330
1
100
AcDbSymbolTableRecord
100
AcDbBlockTableRecord
  2
SW_CENTERMARKSYMBOL_0
340
0
102
{BLKREFS
331
B5
102
}
  0
BLOCK_RECORD
  5
C7
330
1
100
AcDbSymbolTableRecord
100
AcDbBlockTableRecord
  2
SW_CENTERMARKSYMBOL_1
340
0
102
{BLKREFS
331
D2
102
}
  0
BLOCK_RECORD
  5
EB
330
1
100
AcDbSymbolTableRecord
100
AcDbBlockTableRecord
  2
SW_CENTERMARKSYMBOL_2
340
0
102
{BLKREFS
331
F6
102
}
  0
BLOCK_RECORD
  5
107
330
1
100
AcDbSymbolTableRecord
100
AcDbBlockTableRecord
  2
SW_CENTERMARKSYMBOL_3
340
0
102
{BLKREFS
331
112
102
}
  0
ENDTAB
  0
ENDSEC
  0
SECTION
  2
BLOCKS
  0
BLOCK
  5
20
330
1F
100
AcDbEntity
  8
0
100
AcDbBlockBegin
  2
*Model_Space
 70
     0
 10
0.0
 20
0.0
 30
0.0
  3
*Model_Space
  1

  0
ENDBLK
  5
21
330
1F
100
AcDbEntity
  8
0
100
AcDbBlockEnd
  0
BLOCK
  5
1C
330
1B
100
AcDbEntity
 67
     1
  8
0
100
AcDbBlockBegin
  2
*Paper_Space
 70
     0
 10
0.0
 20
0.0
 30
0.0
  3
*Paper_Space
  1

  0
ENDBLK
  5
1D
330
1B
100
AcDbEntity
 67
     1
  8
0
100
AcDbBlockEnd
  0
BLOCK
  5
24
330
23
100
AcDbEntity
  8
0
100
AcDbBlockBegin
  2
*Paper_Space0
 70
     0
 10
0.0
 20
0.0
 30
0.0
  3
*Paper_Space0
  1

  0
ENDBLK
  5
25
330
23
100
AcDbEntity
  8
0
100
AcDbBlockEnd
  0
BLOCK
  5
AB
330
AA
100
AcDbEntity
  8
0
100
AcDbBlockBegin
  2
SW_CENTERMARKSYMBOL_0
 70
     0
 10
0.0
 20
0.0
 30
0.0
  3
SW_CENTERMARKSYMBOL_0
  1

  0
LINE
  5
AD
330
AA
100
AcDbEntity
  8
FORMAT
 62
     0
100
AcDbLine
 10
0.0
 20
0.0
 30
0.0
 11
0.0
 21
2.5
 31
0.0
  0
LINE
  5
AE
330
AA
100
AcDbEntity
  8
FORMAT
 62
     0
100
AcDbLine
 10
0.0
 20
0.0
 30
0.0
 11
-2.5
 21
0.0
 31
0.0
  0
LINE
  5
AF
330
AA
100
AcDbEntity
  8
FORMAT
 62
     0
100
AcDbLine
 10
0.0
 20
0.0
 30
0.0
 11
0.0
 21
-2.5
 31
0.0
  0
LINE
  5
B0
330
AA
100
AcDbEntity
  8
FORMAT
 62
     0
100
AcDbLine
 10
0.0
 20
0.0
 30
0.0
 11
2.5
 21
0.0
 31
0.0
  0
LINE
  5
B1
330
AA
100
AcDbEntity
  8
FORMAT
 62
     0
100
AcDbLine
 10
0.0
 20
5.0
 30
0.0
 11
0.0
 21
28.5
 31
0.0
  0
LINE
  5
B2
330
AA
100
AcDbEntity
  8
FORMAT
 62
     0
100
AcDbLine
 10
-5.0
 20
0.0
 30
0.0
 11
-28.5
 21
0.0
 31
0.0
  0
LINE
  5
B3
330
AA
100
AcDbEntity
  8
FORMAT
 62
     0
100
AcDbLine
 10
0.0
 20
-5.0
 30
0.0
 11
0.0
 21
-28.5
 31
0.0
  0
LINE
  5
B4
330
AA
100
AcDbEntity
  8
FORMAT
 62
     0
100
AcDbLine
 10
5.0
 20
0.0
 30
0.0
 11
28.5
 21
0.0
 31
0.0
  0
ENDBLK
  5
AC
330
AA
100
AcDbEntity
  8
0
100
AcDbBlockEnd
  0
BLOCK
  5
C8
330
C7
100
AcDbEntity
  8
0
100
AcDbBlockBegin
  2
SW_CENTERMARKSYMBOL_1
 70
     0
 10
0.0
 20
0.0
 30
0.0
  3
SW_CENTERMARKSYMBOL_1
  1

  0
LINE
  5
CA
330
C7
100
AcDbEntity
  8
FORMAT
 62
     0
100
AcDbLine
 10
0.0
 20
0.0
 30
0.0
 11
0.0
 21
2.5
 31
0.0
  0
LINE
  5
CB
330
C7
100
AcDbEntity
  8
FORMAT
 62
     0
100
AcDbLine
 10
0.0
 20
0.0
 30
0.0
 11
-2.5
 21
0.0
 31
0.0
  0
LINE
  5
CC
330
C7
100
AcDbEntity
  8
FORMAT
 62
     0
100
AcDbLine
 10
0.0
 20
0.0
 30
0.0
 11
0.0
 21
-2.5
 31
0.0
  0
LINE
  5
CD
330
C7
100
AcDbEntity
  8
FORMAT
 62
     0
100
AcDbLine
 10
0.0
 20
0.0
 30
0.0
 11
2.5
 21
0.0
 31
0.0
  0
LINE
  5
CE
330
C7
100
AcDbEntity
  8
FORMAT
 62
     0
100
AcDbLine
 10
0.0
 20
5.0
 30
0.0
 11
0.0
 21
29.0
 31
0.0
  0
LINE
  5
CF
330
C7
100
AcDbEntity
  8
FORMAT
 62
     0
100
AcDbLine
 10
-5.0
 20
0.0
 30
0.0
 11
-29.0
 21
0.0
 31
0.0
  0
LINE
  5
D0
330
C7
100
AcDbEntity
  8
FORMAT
 62
     0
100
AcDbLine
 10
0.0
 20
-5.0
 30
0.0
 11
0.0
 21
-29.0
 31
0.0
  0
LINE
  5
D1
330
C7
100
AcDbEntity
  8
FORMAT
 62
     0
100
AcDbLine
 10
5.0
 20
0.0
 30
0.0
 11
29.0
 21
0.0
 31
0.0
  0
ENDBLK
  5
C9
330
C7
100
AcDbEntity
  8
0
100
AcDbBlockEnd
  0
BLOCK
  5
EC
330
EB
100
AcDbEntity
  8
0
100
AcDbBlockBegin
  2
SW_CENTERMARKSYMBOL_2
 70
     0
 10
0.0
 20
0.0
 30
0.0
  3
SW_CENTERMARKSYMBOL_2
  1

  0
LINE
  5
EE
330
EB
100
AcDbEntity
  8
FORMAT
 62
     0
100
AcDbLine
 10
0.0
 20
0.0
 30
0.0
 11
0.0
 21
2.5
 31
0.0
  0
LINE
  5
EF
330
EB
100
AcDbEntity
  8
FORMAT
 62
     0
100
AcDbLine
 10
0.0
 20
0.0
 30
0.0
 11
-2.5
 21
0.0
 31
0.0
  0
LINE
  5
F0
330
EB
100
AcDbEntity
  8
FORMAT
 62
     0
100
AcDbLine
 10
0.0
 20
0.0
 30
0.0
 11
0.0
 21
-2.5
 31
0.0
  0
LINE
  5
F1
330
EB
100
AcDbEntity
  8
FORMAT
 62
     0
100
AcDbLine
 10
0.0
 20
0.0
 30
0.0
 11
2.5
 21
0.0
 31
0.0
  0
LINE
  5
F2
330
EB
100
AcDbEntity
  8
FORMAT
 62
     0
100
AcDbLine
 10
0.0
 20
5.0
 30
0.0
 11
0.0
 21
28.5
 31
0.0
  0
LINE
  5
F3
330
EB
100
AcDbEntity
  8
FORMAT
 62
     0
100
AcDbLine
 10
-5.0
 20
0.0
 30
0.0
 11
-28.5
 21
0.0
 31
0.0
  0
LINE
  5
F4
330
EB
100
AcDbEntity
  8
FORMAT
 62
     0
100
AcDbLine
 10
0.0
 20
-5.0
 30
0.0
 11
0.0
 21
-28.5
 31
0.0
  0
LINE
  5
F5
330
EB
100
AcDbEntity
  8
FORMAT
 62
     0
100
AcDbLine
 10
5.0
 20
0.0
 30
0.0
 11
28.5
 21
0.0
 31
0.0
  0
ENDBLK
  5
ED
330
EB
100
AcDbEntity
  8
0
100
AcDbBlockEnd
  0
BLOCK
  5
108
330
107
100
AcDbEntity
  8
0
100
AcDbBlockBegin
  2
SW_CENTERMARKSYMBOL_3
 70
     0
 10
0.0
 20
0.0
 30
0.0
  3
SW_CENTERMARKSYMBOL_3
  1

  0
LINE
  5
10A
330
107
100
AcDbEntity
  8
FORMAT
 62
     0
100
AcDbLine
 10
0.0
 20
0.0
 30
0.0
 11
0.0
 21
2.5
 31
0.0
  0
LINE
  5
10B
330
107
100
AcDbEntity
  8
FORMAT
 62
     0
100
AcDbLine
 10
0.0
 20
0.0
 30
0.0
 11
-2.5
 21
0.0
 31
0.0
  0
LINE
  5
10C
330
107
100
AcDbEntity
  8
FORMAT
 62
     0
100
AcDbLine
 10
0.0
 20
0.0
 30
0.0
 11
0.0
 21
-2.5
 31
0.0
  0
LINE
  5
10D
330
107
100
AcDbEntity
  8
FORMAT
 62
     0
100
AcDbLine
 10
0.0
 20
0.0
 30
0.0
 11
2.5
 21
0.0
 31
0.0
  0
LINE
  5
10E
330
107
100
AcDbEntity
  8
FORMAT
 62
     0
100
AcDbLine
 10
0.0
 20
5.0
 30
0.0
 11
0.0
 21
29.0
 31
0.0
  0
LINE
  5
10F
330
107
100
AcDbEntity
  8
FORMAT
 62
     0
100
AcDbLine
 10
-5.0
 20
0.0
 30
0.0
 11
-29.0
 21
0.0
 31
0.0
  0
LINE
  5
110
330
107
100
AcDbEntity
  8
FORMAT
 62
     0
100
AcDbLine
 10
0.0
 20
-5.0
 30
0.0
 11
0.0
 21
-29.0
 31
0.0
  0
LINE
  5
111
330
107
100
AcDbEntity
  8
FORMAT
 62
     0
100
AcDbLine
 10
5.0
 20
0.0
 30
0.0
 11
29.0
 21
0.0
 31
0.0
  0
ENDBLK
  5
109
330
107
100
AcDbEntity
  8
0
100
AcDbBlockEnd
  0
ENDSEC
  0
SECTION
  2
ENTITIES
  0
LINE
  5
83
330
1F
100
AcDbEntity
  8
0
  6
Continuous
 62
     7
370
    25
100
AcDbLine
 10
145.194619309
 20
178.6778404447
 30
0.0
 11
109.2463511371
 21
142.7295722729
 31
0.0
  0
LINE
  5
84
330
1F
100
AcDbEntity
  8
0
  6
Continuous
 62
     7
370
    25
100
AcDbLine
 10
146.72301054
 20
105.25291287
 30
0.0
 11
182.6712787119
 21
141.2011810419
 31
0.0
  0
ARC
  5
85
330
1F
100
AcDbEntity
  8
0
  6
Continuous
 62
     7
370
    25
100
AcDbCircle
 10
149.1978842741
 20
102.7780391358
 30
0.0
 40
3.500000000000008
100
AcDbArc
 50
135.0
 51
180.0
  0
ARC
  5
86
330
1F
100
AcDbEntity
  8
0
  6
Continuous
 62
     7
370
    25
100
AcDbCircle
 10
149.1978842741
 20
102.7780391358
 30
0.0
 40
56.50000000000003
100
AcDbArc
 50
135.0
 51
180.0
  0
LINE
  5
87
330
1F
100
AcDbEntity
  8
0
  6
Continuous
 62
     7
370
    25
100
AcDbLine
 10
92.6978842741
 20
102.7780391358
 30
0.0
 11
92.6978842741
 21
51.9395107433
 31
0.0
  0
LINE
  5
88
330
1F
100
AcDbEntity
  8
0
  6
Continuous
 62
     7
370
    25
100
AcDbLine
 10
145.6978842741
 20
51.9395107433
 30
0.0
 11
145.6978842741
 21
102.7780391358
 31
0.0
  0
CIRCLE
  5
89
330
1F
100
AcDbEntity
  8
0
  6
Continuous
 62
     7
370
    25
100
AcDbCircle
 10
119.1978842741
 20
61.9395107433
 30
0.0
 40
5.0
  0
CIRCLE
  5
8A
330
1F
100
AcDbEntity
  8
0
  6
Continuous
 62
     7
370
    25
100
AcDbCircle
 10
119.1978842741
 20
61.9395107433
 30
0.0
 40
7.000000000000014
  0
CIRCLE
  5
8B
330
1F
100
AcDbEntity
  8
0
  6
Continuous
 62
     7
370
    25
100
AcDbCircle
 10
156.8618811986
 20
152.8684429314
 30
0.0
 40
7.0
  0
CIRCLE
  5
8C
330
1F
100
AcDbEntity
  8
0
  6
Continuous
 62
     7
370
    25
100
AcDbCircle
 10
156.8618811986
 20
152.8684429314
 30
0.0
 40
5.0
  0
LINE
  5
8D
330
1F
100
AcDbEntity
  8
0
  6
Continuous
 62
     7
370
    25
100
AcDbLine
 10
163.9329490104
 20
159.9395107433
 30
0.0
 11
182.6712787119
 21
141.2011810419
 31
0.0
  0
LINE
  5
8E
330
1F
100
AcDbEntity
  8
0
  6
Continuous
 62
     7
370
    25
100
AcDbLine
 10
145.194619309
 20
178.6778404447
 30
0.0
 11
163.9329490104
 21
159.9395107433
 31
0.0
  0
LINE
  5
8F
330
1F
100
AcDbEntity
  8
0
  6
Continuous
 62
     7
370
    25
100
AcDbLine
 10
119.1978842741
 20
51.9395107433
 30
0.0
 11
145.6978842741
 21
51.9395107433
 31
0.0
  0
LINE
  5
90
330
1F
100
AcDbEntity
  8
0
  6
Continuous
 62
     7
370
    25
100
AcDbLine
 10
92.6978842741
 20
51.9395107433
 30
0.0
 11
119.1978842741
 21
51.9395107433
 31
0.0
  0
LINE
  5
91
330
1F
100
AcDbEntity
  8
0
  6
Continuous
 62
     1
370
    25
100
AcDbLine
 10
127.9846808385
 20
123.9912425714
 30
0.0
 11
146.72301054
 21
105.25291287
 31
0.0
  0
LINE
  5
92
330
1F
100
AcDbEntity
  8
0
  6
Continuous
 62
     1
370
    25
100
AcDbLine
 10
109.2463511371
 20
142.7295722729
 30
0.0
 11
127.9846808385
 21
123.9912425714
 31
0.0
  0
LINE
  5
93
330
1F
100
AcDbEntity
  8
0
  6
Continuous
 62
     1
370
    25
100
AcDbLine
 10
119.1978842741
 20
102.7780391358
 30
0.0
 11
145.6978842741
 21
102.7780391358
 31
0.0
  0
LINE
  5
94
330
1F
100
AcDbEntity
  8
0
  6
Continuous
 62
     1
370
    25
100
AcDbLine
 10
92.6978842741
 20
102.7780391358
 30
0.0
 11
119.1978842741
 21
102.7780391358
 31
0.0
  0
LINE
  5
95
330
1F
100
AcDbEntity
  8
0
  6
Continuous
 62
     7
370
    25
100
AcDbLine
 10
-51.7158507307
 20
145.8684429314
 30
0.0
 11
-51.7158507307
 21
123.9912425714
 31
0.0
  0
LINE
  5
96
330
1F
100
AcDbEntity
  8
0
  6
Continuous
 62
     7
370
    25
100
AcDbLine
 10
-51.7158507307
 20
159.9395107433
 30
0.0
 11
-51.7158507307
 21
157.8003307943
 31
0.0
  0
LINE
  5
97
330
1F
100
AcDbEntity
  8
0
  6
Continuous
 62
     7
370
    25
100
AcDbLine
 10
1.2841492693
 20
123.9912425714
 30
0.0
 11
1.2841492693
 21
159.9395107433
 31
0.0
  0
LINE
  5
98
330
1F
100
AcDbEntity
  8
0
  6
Continuous
 62
     7
370
    25
100
AcDbLine
 10
-51.7158507307
 20
159.8684429314
 30
0.0
 11
-66.7158507307
 21
159.8684429314
 31
0.0
  0
LINE
  5
99
330
1F
100
AcDbEntity
  8
0
  6
Continuous
 62
     7
370
    25
100
AcDbLine
 10
-66.7158507307
 20
145.8684429314
 30
0.0
 11
-51.2494301935
 21
145.8684429314
 31
0.0
  0
LINE
  5
9A
330
1F
100
AcDbEntity
  8
0
  6
Continuous
 62
     7
370
    25
100
AcDbLine
 10
-51.7158507307
 20
123.9912425714
 30
0.0
 11
-51.7158507307
 21
102.7780391358
 31
0.0
  0
LINE
  5
9B
330
1F
100
AcDbEntity
  8
0
  6
Continuous
 62
     7
370
    25
100
AcDbLine
 10
1.2841492693
 20
102.7780391358
 30
0.0
 11
1.2841492693
 21
123.9912425714
 31
0.0
  0
LINE
  5
9C
330
1F
100
AcDbEntity
  8
0
  6
Continuous
 62
     7
370
    25
100
AcDbLine
 10
-51.7158507307
 20
54.9641112105
 30
0.0
 11
-51.7158507307
 21
51.9395107433
 31
0.0
  0
LINE
  5
9D
330
1F
100
AcDbEntity
  8
0
  6
Continuous
 62
     7
370
    25
100
AcDbLine
 10
-51.7158507307
 20
102.7780391358
 30
0.0
 11
-51.7158507307
 21
68.9214159529
 31
0.0
  0
LINE
  5
9E
330
1F
100
AcDbEntity
  8
0
  6
Continuous
 62
     7
370
    25
100
AcDbLine
 10
1.2841492693
 20
51.9395107433
 30
0.0
 11
1.2841492693
 21
102.7780391358
 31
0.0
  0
LINE
  5
9F
330
1F
100
AcDbEntity
  8
0
  6
Continuous
 62
     7
370
    25
100
AcDbLine
 10
-51.7110893036
 20
68.9395107433
 30
0.0
 11
-66.7158507307
 21
68.9395107433
 31
0.0
  0
LINE
  5
A0
330
1F
100
AcDbEntity
  8
0
  6
Continuous
 62
     7
370
    25
100
AcDbLine
 10
-66.7158507307
 20
54.9395107433
 30
0.0
 11
-51.7093656101
 21
54.9395107433
 31
0.0
  0
LWPOLYLINE
  5
A1
330
1F
100
AcDbEntity
  8
0
  6
Continuous
 62
     7
370
    25
100
AcDbPolyline
 90
       96
 70
   128
 43
0.0
 10
-51.7158507307
 20
159.9395107433
 10
-51.657911852
 20
158.701083584
 10
-51.4843485679
 20
157.4680717517
 10
-51.1959198264
 20
156.2458668931
 10
-50.7938868531
 20
155.0398133994
 10
-50.2800076358
 20
153.8551850355
 10
-49.6565292376
 20
152.6971618798
 10
-48.926177971
 20
151.5708076729
 10
-48.0921474761
 20
150.4810476753
 10
-47.1580847561
 20
149.4326471301
 10
-46.1280742297
 20
148.4301904261
 10
-45.0066198708
 20
147.4780610515
 10
-43.7986255139
 20
146.5804224257
 10
-42.5093734111
 20
145.741199694
 10
-41.1445011337
 20
144.964062564
 10
-39.709976921
 20
144.2524092586
 10
-38.2120735822
 20
143.6093516566
 10
-36.6573410677
 20
143.0377016853
 10
-35.052577827
 20
142.5399590245
 10
-33.4048010816
 20
142.1183001763
 10
-31.7212161399
 20
141.7745689475
 10
-30.0091848905
 20
141.5102683873
 10
-28.2761936104
 20
141.3265542149
 10
-26.5298202296
 20
141.2242297655
 10
-24.7777011944
 20
141.203742478
 10
-23.0274980757
 20
141.265181938
 10
-21.2868640663
 20
141.4082794864
 10
-19.563410516
 20
141.6324093941
 10
-17.8646736485
 20
141.936591598
 10
-16.198081608
 20
142.3194959866
 10
-14.5709219774
 20
142.7794482167
 10
-12.9903099118
 20
143.3144370339
 10
-11.4631570255
 20
143.9221230685
 10
-9.9961411696
 20
144.5998490639
 10
-8.5956772312
 20
145.3446514969
 10
-7.2678890826
 20
146.1532735359
 10
-6.0185828037
 20
147.0221792824
 10
-4.853221293
 20
147.9475692328
 10
-3.7769003798
 20
148.9253968922
 10
-2.7943265416
 20
149.9513864691
 10
-1.9097963237
 20
151.021051572
 10
-1.1271775519
 20
152.1297148278
 10
-0.4498924188
 20
153.2725283339
 10
0.1190974799
 20
154.4444948578
 10
0.5773040964
 20
155.6404896881
 10
0.9227238095
 20
156.8552830435
 10
1.1538461867
 20
158.083562942
 10
1.2696605888
 20
159.319958428
 10
1.2696605888
 20
160.5590630586
 10
1.1538461867
 20
161.7954585446
 10
0.9227238095
 20
163.0237384431
 10
0.5773040964
 20
164.2385317985
 10
0.1190974799
 20
165.4345266288
 10
-0.4498924188
 20
166.6064931527
 10
-1.1271775519
 20
167.7493066588
 10
-1.9097963237
 20
168.8579699146
 10
-2.7943265416
 20
169.9276350175
 10
-3.7769003798
 20
170.9536245944
 10
-4.853221293
 20
171.9314522538
 10
-6.0185828037
 20
172.8568422042
 10
-7.2678890826
 20
173.7257479507
 10
-8.5956772312
 20
174.5343699897
 10
-9.9961411696
 20
175.2791724227
 10
-11.4631570255
 20
175.9568984181
 10
-12.9903099118
 20
176.5645844527
 10
-14.5709219774
 20
177.09957327
 10
-16.198081608
 20
177.5595255
 10
-17.8646736485
 20
177.9424298886
 10
-19.563410516
 20
178.2466120925
 10
-21.2868640663
 20
178.4707420002
 10
-23.0274980757
 20
178.6138395486
 10
-24.7777011944
 20
178.6752790086
 10
-26.5298202296
 20
178.6547917211
 10
-28.2761936104
 20
178.5524672717
 10
-30.0091848905
 20
178.3687530993
 10
-31.7212161399
 20
178.1044525391
 10
-33.4048010816
 20
177.7607213103
 10
-35.052577827
 20
177.3390624621
 10
-36.6573410677
 20
176.8413198013
 10
-38.2120735822
 20
176.26966983
 10
-39.709976921
 20
175.626612228
 10
-41.1445011337
 20
174.9149589226
 10
-42.5093734111
 20
174.1378217926
 10
-43.7986255139
 20
173.2985990609
 10
-45.0066198708
 20
172.4009604351
 10
-46.1280742297
 20
171.4488310605
 10
-47.1580847561
 20
170.4463743565
 10
-48.0921474761
 20
169.3979738113
 10
-48.926177971
 20
168.3082138137
 10
-49.6565292376
 20
167.1818596068
 10
-50.2800076358
 20
166.0238364511
 10
-50.7938868531
 20
164.8392080872
 10
-51.1959198264
 20
163.6331545935
 10
-51.4843485679
 20
162.4109497349
 10
-51.657911852
 20
161.1779379026
 10
-51.7158507307
 20
159.9395107433
  0
LWPOLYLINE
  5
A2
330
1F
100
AcDbEntity
  8
0
  6
Continuous
 62
     7
370
    25
100
AcDbPolyline
 90
       83
 70
   128
 43
0.0
 10
-45.2158507307
 20
159.9395107433
 10
-45.1571667544
 20
161.0220806588
 10
-44.9814592063
 20
162.0982976236
 10
-44.6897592083
 20
163.1618459686
 10
-44.2837785718
 20
164.2064843691
 10
-43.7658997528
 20
165.2260824717
 10
-43.1391618699
 20
166.2146568694
 10
-42.4072428705
 20
167.1664062143
 10
-41.574437946
 20
168.075745263
 10
-40.6456343271
 20
168.9373376523
 10
-39.6262826027
 20
169.7461272154
 10
-38.522364734
 20
170.4973676537
 10
-37.34035895
 20
171.1866503894
 10
-36.0872017307
 20
171.8099304375
 10
-34.770247101
 20
172.3635501428
 10
-33.3972234741
 20
172.8442606447
 10
-31.9761882989
 20
173.2492409428
 10
-30.5154807746
 20
173.5761144517
 10
-29.023672914
 20
173.8229629476
 10
-27.5095192387
 20
173.9883378256
 10
-25.9819054045
 20
174.0712685999
 10
-24.4497960569
 20
174.0712685999
 10
-22.9221822227
 20
173.9883378256
 10
-21.4080285474
 20
173.8229629476
 10
-19.9162206868
 20
173.5761144517
 10
-18.4555131625
 20
173.2492409428
 10
-17.0344779873
 20
172.8442606447
 10
-15.6614543605
 20
172.3635501428
 10
-14.3444997307
 20
171.8099304375
 10
-13.0913425114
 20
171.1866503894
 10
-11.9093367274
 20
170.4973676537
 10
-10.8054188587
 20
169.7461272154
 10
-9.7860671343
 20
168.9373376523
 10
-8.8572635154
 20
168.075745263
 10
-8.024458591
 20
167.1664062143
 10
-7.2925395915
 20
166.2146568694
 10
-6.6658017087
 20
165.2260824717
 10
-6.1479228896
 20
164.2064843691
 10
-5.7419422532
 20
163.1618459686
 10
-5.4502422551
 20
162.0982976236
 10
-5.274534707
 20
161.0220806588
 10
-5.2158507307
 20
159.9395107433
 10
-5.274534707
 20
158.8569408278
 10
-5.4502422551
 20
157.780723863
 10
-5.7419422532
 20
156.7171755181
 10
-6.1479228896
 20
155.6725371175
 10
-6.6658017087
 20
154.6529390149
 10
-7.2925395915
 20
153.6643646172
 10
-8.024458591
 20
152.7126152723
 10
-8.8572635154
 20
151.8032762236
 10
-9.7860671343
 20
150.9416838343
 10
-10.8054188587
 20
150.1328942712
 10
-11.9093367274
 20
149.3816538329
 10
-13.0913425114
 20
148.6923710972
 10
-14.3444997307
 20
148.0690910491
 10
-15.6614543605
 20
147.5154713438
 10
-17.0344779873
 20
147.0347608419
 10
-18.4555131625
 20
146.6297805439
 10
-19.9162206868
 20
146.3029070349
 10
-21.4080285474
 20
146.056058539
 10
-22.9221822227
 20
145.890683661
 10
-24.4497960569
 20
145.8077528867
 10
-25.9819054045
 20
145.8077528867
 10
-27.5095192387
 20
145.890683661
 10
-29.023672914
 20
146.056058539
 10
-30.5154807746
 20
146.3029070349
 10
-31.9761882989
 20
146.6297805439
 10
-33.3972234741
 20
147.0347608419
 10
-34.770247101
 20
147.5154713438
 10
-36.0872017307
 20
148.0690910491
 10
-37.34035895
 20
148.6923710972
 10
-38.522364734
 20
149.3816538329
 10
-39.6262826027
 20
150.1328942712
 10
-40.6456343272
 20
150.9416838343
 10
-41.574437946
 20
151.8032762236
 10
-42.4072428705
 20
152.7126152723
 10
-43.1391618699
 20
153.6643646172
 10
-43.7658997528
 20
154.6529390149
 10
-44.2837785718
 20
155.6725371175
 10
-44.6897592083
 20
156.7171755181
 10
-44.9814592063
 20
157.780723863
 10
-45.1571667544
 20
158.8569408278
 10
-45.2158507307
 20
159.9395107433
  0
SPLINE
  5
A3
330
1F
100
AcDbEntity
  8
0
  6
Continuous
 62
     7
370
    25
100
AcDbSpline
210
0.0
220
0.0
230
1.0
 70
     8
 71
     3
 72
    22
 73
    18
 74
     0
 42
0.00000001
 43
0.00000001
 40
0.0
 40
0.0
 40
0.0
 40
0.0
 40
0.0385657537808751
 40
0.1098858227398776
 40
0.1833075127753486
 40
0.253902787373908
 40
0.3266805774622157
 40
0.395057375442428
 40
0.4654369979841575
 40
0.5336163768134284
 40
0.6036620804613166
 40
0.673899134025728
 40
0.7460999854285063
 40
0.8175144462826707
 40
0.8910827081110186
 40
0.9609958316319213
 40
1.0
 40
1.0
 40
1.0
 40
1.0
 10
-51.24943019350071
 20
145.8928754366088
 30
0.0
 10
-51.22104802372335
 20
145.8889212349948
 30
0.0
 10
-51.14017839791883
 20
145.8776544852223
 30
0.0
 10
-51.01059711864621
 20
146.0762475198918
 30
0.0
 10
-50.88442573908401
 20
146.4689529199255
 30
0.0
 10
-50.79888367717707
 20
147.0601174298982
 30
0.0
 10
-50.76595196533437
 20
147.8008267449192
 30
0.0
 10
-50.78704518627787
 20
148.6819550591197
 30
0.0
 10
-50.85710948629652
 20
149.6544126914696
 30
0.0
 10
-50.96905671951885
 20
150.7171968457871
 30
0.0
 10
-51.10974516435553
 20
151.8334828531423
 30
0.0
 10
-51.26726534874466
 20
152.9977472712825
 30
0.0
 10
-51.42291458986392
 20
154.1662601876986
 30
0.0
 10
-51.56147260464571
 20
155.3200756514813
 30
0.0
 10
-51.66059246130934
 20
156.3883682672403
 30
0.0
 10
-51.71325320530489
 20
157.2334150412896
 30
0.0
 10
-51.71026176139891
 20
157.6508519877581
 30
0.0
 10
-51.70919050099802
 20
157.8003395545231
 30
0.0
  0
LINE
  5
A4
330
1F
100
AcDbEntity
  8
0
  6
Continuous
 62
     7
370
    25
100
AcDbLine
 10
-66.7158507307
 20
159.8684429314
 30
0.0
 11
-66.7158507307
 21
145.8684429314
 31
0.0
  0
LINE
  5
A5
330
1F
100
AcDbEntity
  8
0
  6
Continuous
 62
     7
370
    25
100
AcDbLine
 10
-51.7158507307
 20
51.9395107433
 30
0.0
 11
1.2841492693
 21
51.9395107433
 31
0.0
  0
SPLINE
  5
A6
330
1F
100
AcDbEntity
  8
0
  6
Continuous
 62
     7
370
    25
100
AcDbSpline
210
0.0
220
0.0
230
1.0
 70
     8
 71
     3
 72
    27
 73
    23
 74
     0
 42
0.00000001
 43
0.00000001
 40
0.0
 40
0.0
 40
0.0
 40
0.0
 40
0.031504813859342
 40
0.0825824513416677
 40
0.1351160715807208
 40
0.1867298786922117
 40
0.2397559473131887
 40
0.2928994141663765
 40
0.3475629165056818
 40
0.4009623267636127
 40
0.4560015128153581
 40
0.5078390164259998
 40
0.5612396170022167
 40
0.6121627580852891
 40
0.6645044648554206
 40
0.7165476119896165
 40
0.7700183203840029
 40
0.8234862543164014
 40
0.8785246158641613
 40
0.9315421488648251
 40
0.9861920890400915
 40
1.0
 40
1.0
 40
1.0
 40
1.0
 10
-51.70936436559556
 20
54.9641112105362
 30
0.0
 10
-51.71014987421148
 20
54.96111139747347
 30
0.0
 10
-51.71220890009057
 20
54.95324809387189
 30
0.0
 10
-51.65952456993094
 20
55.15385305841085
 30
0.0
 10
-51.56433723832451
 20
55.53166664086784
 30
0.0
 10
-51.43223204580612
 20
56.09340174774132
 30
0.0
 10
-51.2801485720992
 20
56.81113465787556
 30
0.0
 10
-51.12069552285068
 20
57.68528567814718
 30
0.0
 10
-50.97407086511809
 20
58.68344677691155
 30
0.0
 10
-50.85642693408623
 20
59.7899973874361
 30
0.0
 10
-50.78504385304694
 20
60.94301120441078
 30
0.0
 10
-50.76638449319847
 20
62.12529533739352
 30
0.0
 10
-50.80097650351372
 20
63.27238139599757
 30
0.0
 10
-50.88384914439014
 20
64.38380421135332
 30
0.0
 10
-51.00395348090861
 20
65.41834411256626
 30
0.0
 10
-51.15127188834435
 20
66.37331987336134
 30
0.0
 10
-51.30944526113913
 20
67.21371965643284
 30
0.0
 10
-51.46279981965878
 20
67.92097089236589
 30
0.0
 10
-51.5924236895106
 20
68.46113431278887
 30
0.0
 10
-51.6797503866478
 20
68.80305715894039
 30
0.0
 10
-51.71944745099087
 20
68.95316362706755
 30
0.0
 10
-51.71248695067293
 20
68.92674464673604
 30
0.0
 10
-51.71108302158324
 20
68.92141595291903
 30
0.0
  0
LINE
  5
A7
330
1F
100
AcDbEntity
  8
0
  6
Continuous
 62
     7
370
    25
100
AcDbLine
 10
-66.7158507307
 20
68.9395107433
 30
0.0
 11
-66.7158507307
 21
54.9395107433
 31
0.0
  0
LWPOLYLINE
  5
A8
330
1F
100
AcDbEntity
  8
0
  6
Continuous
 62
     1
370
    25
100
AcDbPolyline
 90
       49
 70
   128
 43
0.0
 10
-51.7158507307
 20
123.9912425714
 10
-51.657911852
 20
122.7528154122
 10
-51.4843485679
 20
121.5198035798
 10
-51.1959198264
 20
120.2975987213
 10
-50.7938868531
 20
119.0915452275
 10
-50.2800076358
 20
117.9069168636
 10
-49.6565292376
 20
116.7488937079
 10
-48.926177971
 20
115.622539501
 10
-48.0921474761
 20
114.5327795034
 10
-47.1580847561
 20
113.4843789582
 10
-46.1280742297
 20
112.4819222542
 10
-45.0066198708
 20
111.5297928796
 10
-43.7986255139
 20
110.6321542538
 10
-42.5093734111
 20
109.7929315222
 10
-41.1445011337
 20
109.0157943922
 10
-39.709976921
 20
108.3041410867
 10
-38.2120735822
 20
107.6610834847
 10
-36.6573410677
 20
107.0894335134
 10
-35.052577827
 20
106.5916908526
 10
-33.4048010816
 20
106.1700320044
 10
-31.7212161399
 20
105.8263007756
 10
-30.0091848905
 20
105.5620002154
 10
-28.2761936104
 20
105.378286043
 10
-26.5298202296
 20
105.2759615936
 10
-24.7777011944
 20
105.2554743061
 10
-23.0274980757
 20
105.3169137661
 10
-21.2868640663
 20
105.4600113145
 10
-19.563410516
 20
105.6841412222
 10
-17.8646736485
 20
105.9883234261
 10
-16.198081608
 20
106.3712278148
 10
-14.5709219774
 20
106.8311800448
 10
-12.9903099118
 20
107.366168862
 10
-11.4631570255
 20
107.9738548966
 10
-9.9961411696
 20
108.651580892
 10
-8.5956772312
 20
109.396383325
 10
-7.2678890826
 20
110.205005364
 10
-6.0185828037
 20
111.0739111105
 10
-4.853221293
 20
111.9993010609
 10
-3.7769003798
 20
112.9771287203
 10
-2.7943265416
 20
114.0031182972
 10
-1.9097963237
 20
115.0727834001
 10
-1.1271775519
 20
116.1814466559
 10
-0.4498924188
 20
117.324260162
 10
0.1190974799
 20
118.4962266859
 10
0.5773040964
 20
119.6922215162
 10
0.9227238095
 20
120.9070148717
 10
1.1538461867
 20
122.1352947701
 10
1.2696605888
 20
123.3716902561
 10
1.2841492693
 20
123.9912425714
  0
LINE
  5
A9
330
1F
100
AcDbEntity
  8
0
  6
Continuous
 62
     1
370
    25
100
AcDbLine
 10
-51.7158507307
 20
102.7780391358
 30
0.0
 11
1.2841492693
 21
102.7780391358
 31
0.0
  0
INSERT
  5
B5
330
1F
100
AcDbEntity
  8
FORMAT
 62
     7
100
AcDbBlockReference
  2
SW_CENTERMARKSYMBOL_0
 10
-25.2158507307
 20
116.9395107433
 30
0.0
  0
LINE
  5
B6
330
1F
100
AcDbEntity
  8
0
  6
Continuous
 62
     7
370
    25
100
AcDbLine
 10
126.1978842741
 20
269.7057506192
 30
0.0
 11
126.1978842741
 21
285.6430620841
 31
0.0
  0
LINE
  5
B7
330
1F
100
AcDbEntity
  8
0
  6
Continuous
 62
     7
370
    25
100
AcDbLine
 10
112.1978842741
 20
285.6430620841
 30
0.0
 11
112.1978842741
 21
269.7018179224
 31
0.0
  0
LINE
  5
B8
330
1F
100
AcDbEntity
  8
0
  6
Continuous
 62
     7
370
    25
100
AcDbLine
 10
127.9846808385
 20
270.6430620841
 30
0.0
 11
126.1978842741
 21
270.6430620841
 31
0.0
  0
LINE
  5
B9
330
1F
100
AcDbEntity
  8
0
  6
Continuous
 62
     7
370
    25
100
AcDbLine
 10
119.1978842741
 20
217.6430620841
 30
0.0
 11
127.9846808385
 21
217.6430620841
 31
0.0
  0
LINE
  5
BA
330
1F
100
AcDbEntity
  8
0
  6
Continuous
 62
     7
370
    25
100
AcDbLine
 10
151.9263757672
 20
270.6430620841
 30
0.0
 11
127.9846808385
 21
270.6430620841
 31
0.0
  0
LINE
  5
BB
330
1F
100
AcDbEntity
  8
0
  6
Continuous
 62
     7
370
    25
100
AcDbLine
 10
163.9329490104
 20
270.6430620841
 30
0.0
 11
163.8618811986
 21
270.6430620841
 31
0.0
  0
LINE
  5
BC
330
1F
100
AcDbEntity
  8
0
  6
Continuous
 62
     7
370
    25
100
AcDbLine
 10
127.9846808385
 20
217.6430620841
 30
0.0
 11
163.9329490104
 21
217.6430620841
 31
0.0
  0
LINE
  5
BD
330
1F
100
AcDbEntity
  8
0
  6
Continuous
 62
     7
370
    25
100
AcDbLine
 10
163.8618811986
 20
270.1768821833
 30
0.0
 11
163.8618811986
 21
285.6430620841
 31
0.0
  0
LINE
  5
BE
330
1F
100
AcDbEntity
  8
0
  6
Continuous
 62
     7
370
    25
100
AcDbLine
 10
149.8618811986
 20
285.6430620841
 30
0.0
 11
149.8618811986
 21
270.6430620841
 31
0.0
  0
CIRCLE
  5
BF
330
1F
100
AcDbEntity
  8
0
  6
Continuous
 62
     7
370
    25
100
AcDbCircle
 10
119.1978842741
 20
244.1430620841
 30
0.0
 40
20.0
  0
CIRCLE
  5
C0
330
1F
100
AcDbEntity
  8
0
  6
Continuous
 62
     7
370
    25
100
AcDbCircle
 10
119.1978842741
 20
244.1430620841
 30
0.0
 40
26.5
  0
LINE
  5
C1
330
1F
100
AcDbEntity
  8
0
  6
Continuous
 62
     7
370
    25
100
AcDbLine
 10
126.1978842741
 20
285.6430620841
 30
0.0
 11
112.1978842741
 21
285.6430620841
 31
0.0
  0
LWPOLYLINE
  5
C2
330
1F
100
AcDbEntity
  8
0
  6
Continuous
 62
     7
370
    25
100
AcDbPolyline
 90
       49
 70
   128
 43
0.0
 10
163.9329490104
 20
270.6430620841
 10
165.1713761697
 20
270.5851232054
 10
166.4043880021
 20
270.4115599213
 10
167.6265928606
 20
270.1231311798
 10
168.8326463543
 20
269.7210982065
 10
170.0172747183
 20
269.2072189892
 10
171.175297874
 20
268.583740591
 10
172.3016520808
 20
267.8533893244
 10
173.3914120784
 20
267.0193588295
 10
174.4398126236
 20
266.0852961096
 10
175.4422693276
 20
265.0552855832
 10
176.3943987023
 20
263.9338312242
 10
177.292037328
 20
262.7258368674
 10
178.1312600597
 20
261.4365847645
 10
178.9083971897
 20
260.0717124871
 10
179.6200504951
 20
258.6371882744
 10
180.2631080971
 20
257.1392849357
 10
180.8347580685
 20
255.5845524211
 10
181.3325007293
 20
253.9797891805
 10
181.7541595775
 20
252.3320124351
 10
182.0978908063
 20
250.6484274934
 10
182.3621913664
 20
248.9363962439
 10
182.5459055389
 20
247.2034049638
 10
182.6482299882
 20
245.457031583
 10
182.6687172757
 20
243.7049125478
 10
182.6072778157
 20
241.9547094291
 10
182.4641802673
 20
240.2140754198
 10
182.2400503596
 20
238.4906218694
 10
181.9358681558
 20
236.791885002
 10
181.5529637671
 20
235.1252929614
 10
181.0930115371
 20
233.4981333308
 10
180.5580227198
 20
231.9175212652
 10
179.9503366852
 20
230.3903683789
 10
179.2726106898
 20
228.923352523
 10
178.5278082568
 20
227.5228885846
 10
177.7191862179
 20
226.1951004361
 10
176.8502804713
 20
224.9457941572
 10
175.9248905209
 20
223.7804326464
 10
174.9470628615
 20
222.7041117332
 10
173.9210732847
 20
221.721537895
 10
172.8514081817
 20
220.8370076772
 10
171.742744926
 20
220.0543889053
 10
170.5999314198
 20
219.3771037723
 10
169.4279648959
 20
218.8081138735
 10
168.2319700657
 20
218.3499072571
 10
167.0171767102
 20
218.004487544
 10
165.7888968117
 20
217.7733651667
 10
164.5525013257
 20
217.6575507646
 10
163.9329490104
 20
217.6430620841
  0
SPLINE
  5
C3
330
1F
100
AcDbEntity
  8
0
  6
Continuous
 62
     7
370
    25
100
AcDbSpline
210
0.0
220
0.0
230
1.0
 70
     8
 71
     3
 72
    22
 73
    18
 74
     0
 42
0.00000001
 43
0.00000001
 40
0.0
 40
0.0
 40
0.0
 40
0.0
 40
0.0218057055654622
 40
0.0928220835079938
 40
0.1608876693226217
 40
0.2308488833752259
 40
0.3004072463543891
 40
0.3718814733117837
 40
0.4431970528198735
 40
0.5166141211117292
 40
0.5872049518836827
 40
0.6599781607605458
 40
0.7283506545626695
 40
0.7987258468526441
 40
0.8669009339309538
 40
0.9369422283465914
 40
0.9999999999999999
 40
0.9999999999999999
 40
0.9999999999999999
 40
0.9999999999999999
 10
151.9264054633987
 20
270.6377533301031
 30
0.0
 10
152.0074405067812
 20
270.6392467436215
 30
0.0
 10
152.3523888296568
 20
270.6456038758821
 30
0.0
 10
153.0846198364357
 20
270.6055270065044
 30
0.0
 10
154.098681099819
 20
270.5210758705814
 30
0.0
 10
155.1855725705099
 20
270.3975965314636
 30
0.0
 10
156.3299556801819
 20
270.2490848788186
 30
0.0
 10
157.4961920211754
 20
270.0905761855406
 30
0.0
 10
158.6665751742058
 20
269.93783060814
 30
0.0
 10
159.7842400618224
 20
269.8116313491488
 30
0.0
 10
160.8279628891784
 20
269.7260966029637
 30
0.0
 10
161.7382905137334
 20
269.6931629069474
 30
0.0
 10
162.5110166940745
 20
269.7142566998285
 30
0.0
 10
163.116329925639
 20
269.7843206092775
 30
0.0
 10
163.5527821105391
 20
269.8962688177978
 30
0.0
 10
163.8183018885261
 20
270.032111270704
 30
0.0
 10
163.8419673898202
 20
270.1303432441098
 30
0.0
 10
163.8531792925085
 20
270.1768821833453
 30
0.0
  0
LINE
  5
C4
330
1F
100
AcDbEntity
  8
0
  6
Continuous
 62
     7
370
    25
100
AcDbLine
 10
163.8618811986
 20
285.6430620841
 30
0.0
 11
149.8618811986
 21
285.6430620841
 31
0.0
  0
LWPOLYLINE
  5
C5
330
1F
100
AcDbEntity
  8
0
  6
Continuous
 62
     1
370
    25
100
AcDbPolyline
 90
       49
 70
   128
 43
0.0
 10
127.9846808385
 20
270.6430620841
 10
129.2231079978
 20
270.5851232054
 10
130.4561198302
 20
270.4115599213
 10
131.6783246887
 20
270.1231311798
 10
132.8843781824
 20
269.7210982065
 10
134.0690065464
 20
269.2072189892
 10
135.2270297021
 20
268.583740591
 10
136.3533839089
 20
267.8533893244
 10
137.4431439065
 20
267.0193588295
 10
138.4915444518
 20
266.0852961096
 10
139.4940011557
 20
265.0552855832
 10
140.4461305304
 20
263.9338312242
 10
141.3437691562
 20
262.7258368674
 10
142.1829918878
 20
261.4365847645
 10
142.9601290178
 20
260.0717124871
 10
143.6717823232
 20
258.6371882744
 10
144.3148399252
 20
257.1392849357
 10
144.8864898966
 20
255.5845524211
 10
145.3842325574
 20
253.9797891805
 10
145.8058914056
 20
252.3320124351
 10
146.1496226344
 20
250.6484274934
 10
146.4139231945
 20
248.9363962439
 10
146.597637367
 20
247.2034049638
 10
146.6999618163
 20
245.457031583
 10
146.7204491039
 20
243.7049125478
 10
146.6590096438
 20
241.9547094291
 10
146.5159120954
 20
240.2140754198
 10
146.2917821877
 20
238.4906218694
 10
145.9875999839
 20
236.791885002
 10
145.6046955952
 20
235.1252929614
 10
145.1447433652
 20
233.4981333308
 10
144.6097545479
 20
231.9175212652
 10
144.0020685134
 20
230.3903683789
 10
143.3243425179
 20
228.923352523
 10
142.5795400849
 20
227.5228885846
 10
141.770918046
 20
226.1951004361
 10
140.9020122994
 20
224.9457941572
 10
139.976622349
 20
223.7804326464
 10
138.9987946896
 20
222.7041117332
 10
137.9728051128
 20
221.721537895
 10
136.9031400098
 20
220.8370076772
 10
135.7944767541
 20
220.0543889053
 10
134.6516632479
 20
219.3771037723
 10
133.479696724
 20
218.8081138735
 10
132.2837018938
 20
218.3499072571
 10
131.0689085383
 20
218.004487544
 10
129.8406286398
 20
217.7733651667
 10
128.6042331538
 20
217.6575507646
 10
127.9846808385
 20
217.6430620841
  0
LWPOLYLINE
  5
C6
330
1F
100
AcDbEntity
  8
0
  6
Continuous
 62
     1
370
    25
100
AcDbPolyline
 90
       36
 70
   128
 43
0.0
 10
124.3450705317
 20
263.4693776572
 10
123.7177072127
 20
263.2109899252
 10
122.6981091101
 20
262.6931111062
 10
121.7095347125
 20
262.0663732234
 10
120.7577853675
 20
261.3344542239
 10
119.8484463189
 20
260.5016492995
 10
118.9868539296
 20
259.5728456806
 10
118.1780643664
 20
258.5534939562
 10
117.4268239282
 20
257.4495760875
 10
116.7375411924
 20
256.2675703035
 10
116.1142611443
 20
255.0144130842
 10
115.560641439
 20
253.6974584544
 10
115.0799309372
 20
252.3244348276
 10
114.6749506391
 20
250.9033996523
 10
114.3480771302
 20
249.4426921281
 10
114.1012286342
 20
247.9508842674
 10
113.9358537563
 20
246.4367305921
 10
113.8529229819
 20
244.9091167579
 10
113.8529229819
 20
243.3770074103
 10
113.9358537563
 20
241.8493935762
 10
114.1012286342
 20
240.3352399009
 10
114.3480771302
 20
238.8434320402
 10
114.6749506391
 20
237.382724516
 10
115.0799309372
 20
235.9616893407
 10
115.560641439
 20
234.5886657139
 10
116.1142611443
 20
233.2717110841
 10
116.7375411924
 20
232.0185538648
 10
117.4268239282
 20
230.8365480808
 10
118.1780643664
 20
229.7326302121
 10
118.9868539296
 20
228.7132784877
 10
119.8484463189
 20
227.7844748688
 10
120.7577853675
 20
226.9516699444
 10
121.7095347125
 20
226.2197509449
 10
122.6981091101
 20
225.5930130621
 10
123.7177072127
 20
225.075134243
 10
124.3450705317
 20
224.8167465111
  0
INSERT
  5
D2
330
1F
100
AcDbEntity
  8
FORMAT
 62
     7
100
AcDbBlockReference
  2
SW_CENTERMARKSYMBOL_1
 10
119.1978842741
 20
244.1430620841
 30
0.0
  0
LINE
  5
D3
330
1F
100
AcDbEntity
  8
0
  6
Continuous
 62
     7
370
    25
100
AcDbLine
 10
240.4918268416
 20
102.7780391358
 30
0.0
 11
240.4918268416
 21
51.9395107433
 31
0.0
  0
LINE
  5
D4
330
1F
100
AcDbEntity
  8
0
  6
Continuous
 62
     7
370
    25
100
AcDbLine
 10
293.4918268416
 20
68.9214159529
 30
0.0
 11
293.4918268416
 21
102.7780391358
 31
0.0
  0
LINE
  5
D5
330
1F
100
AcDbEntity
  8
0
  6
Continuous
 62
     7
370
    25
100
AcDbLine
 10
293.4918268416
 20
51.9395107433
 30
0.0
 11
293.4918268416
 21
54.9641112105
 31
0.0
  0
LINE
  5
D6
330
1F
100
AcDbEntity
  8
0
  6
Continuous
 62
     7
370
    25
100
AcDbLine
 10
293.4918268416
 20
102.7780391358
 30
0.0
 11
293.4918268416
 21
123.9912425714
 31
0.0
  0
LINE
  5
D7
330
1F
100
AcDbEntity
  8
0
  6
Continuous
 62
     7
370
    25
100
AcDbLine
 10
240.4918268416
 20
123.9912425714
 30
0.0
 11
240.4918268416
 21
102.7780391358
 31
0.0
  0
LINE
  5
D8
330
1F
100
AcDbEntity
  8
0
  6
Continuous
 62
     7
370
    25
100
AcDbLine
 10
240.4918268416
 20
159.9395107433
 30
0.0
 11
240.4918268416
 21
123.9912425714
 31
0.0
  0
LINE
  5
D9
330
1F
100
AcDbEntity
  8
0
  6
Continuous
 62
     7
370
    25
100
AcDbLine
 10
293.4918268416
 20
159.8684429314
 30
0.0
 11
293.4918268416
 21
159.9395107433
 31
0.0
  0
LINE
  5
DA
330
1F
100
AcDbEntity
  8
0
  6
Continuous
 62
     7
370
    25
100
AcDbLine
 10
293.4918268416
 20
123.9912425714
 30
0.0
 11
293.4918268416
 21
147.9329375
 31
0.0
  0
LINE
  5
DB
330
1F
100
AcDbEntity
  8
0
  6
Continuous
 62
     7
370
    25
100
AcDbLine
 10
293.485341721
 20
54.9395107433
 30
0.0
 11
308.4918268416
 21
54.9395107433
 31
0.0
  0
LINE
  5
DC
330
1F
100
AcDbEntity
  8
0
  6
Continuous
 62
     7
370
    25
100
AcDbLine
 10
308.4918268416
 20
68.9395107433
 30
0.0
 11
293.4870654146
 21
68.9395107433
 31
0.0
  0
LINE
  5
DD
330
1F
100
AcDbEntity
  8
0
  6
Continuous
 62
     7
370
    25
100
AcDbLine
 10
293.4918268416
 20
145.8684429314
 30
0.0
 11
308.4918268416
 21
145.8684429314
 31
0.0
  0
LINE
  5
DE
330
1F
100
AcDbEntity
  8
0
  6
Continuous
 62
     7
370
    25
100
AcDbLine
 10
308.4918268416
 20
159.8684429314
 30
0.0
 11
293.0256082758
 21
159.8684429314
 31
0.0
  0
LINE
  5
DF
330
1F
100
AcDbEntity
  8
0
  6
Continuous
 62
     7
370
    25
100
AcDbLine
 10
240.4918268416
 20
51.9395107433
 30
0.0
 11
293.4918268416
 21
51.9395107433
 31
0.0
  0
SPLINE
  5
E0
330
1F
100
AcDbEntity
  8
0
  6
Continuous
 62
     7
370
    25
100
AcDbSpline
210
0.0
220
0.0
230
1.0
 70
     8
 71
     3
 72
    17
 73
    13
 74
     0
 42
0.00000001
 43
0.00000001
 40
0.0
 40
0.0
 40
0.0
 40
0.0
 40
0.1032840566319531
 40
0.2096324847318147
 40
0.3128977085210229
 40
0.419036032575963
 40
0.5245865987181015
 40
0.6331004146383414
 40
0.7401882410453164
 40
0.8505180904170407
 40
0.9551679543371061
 40
1.0
 40
1.0
 40
1.0
 40
1.0
 10
292.55058267989
 20
61.93951074330267
 30
0.0
 10
292.5555400619253
 20
61.55925554440925
 30
0.0
 10
292.5656019083294
 20
60.78746321967247
 30
0.0
 10
292.6441628778503
 20
59.66852976873745
 30
0.0
 10
292.7604363837507
 20
58.6050702297978
 30
0.0
 10
292.9050025971391
 20
57.63669860453108
 30
0.0
 10
293.0638191740964
 20
56.77204113041736
 30
0.0
 10
293.2180107969178
 20
56.04927565121949
 30
0.0
 10
293.352970874224
 20
55.47979491864628
 30
0.0
 10
293.4460199770371
 20
55.11322142892526
 30
0.0
 10
293.4921784169293
 20
54.93815862749056
 30
0.0
 10
293.4869181236573
 20
54.95812343993732
 30
0.0
 10
293.4853404765104
 20
54.9641112105362
 30
0.0
  0
SPLINE
  5
E1
330
1F
100
AcDbEntity
  8
0
  6
Continuous
 62
     7
370
    25
100
AcDbSpline
210
0.0
220
0.0
230
1.0
 70
     8
 71
     3
 72
    17
 73
    13
 74
     0
 42
0.00000001
 43
0.00000001
 40
0.0
 40
0.0
 40
0.0
 40
0.0
 40
0.0752806765467981
 40
0.1812059389543938
 40
0.2835170350678246
 40
0.388651020556074
 40
0.4936587636165234
 40
0.6015847442211147
 40
0.7087109868941502
 40
0.8190445826048621
 40
0.9085416770622091
 40
1.0
 40
1.0
 40
1.0
 40
1.0
 10
293.4870591324981
 20
68.92141595291903
 30
0.0
 10
293.4864222215016
 20
68.91904626337494
 30
0.0
 10
293.4848891314653
 20
68.91334225221874
 30
0.0
 10
293.4252175351366
 20
68.68541595548969
 30
0.0
 10
293.3232931008371
 20
68.27748250177191
 30
0.0
 10
293.1884774393944
 20
67.69740470097639
 30
0.0
 10
293.0336008832361
 20
66.9533258687223
 30
0.0
 10
292.8757089066357
 20
66.06511832279098
 30
0.0
 10
292.730810459151
 20
65.04325992795941
 30
0.0
 10
292.6260200113942
 20
63.99061124984415
 30
0.0
 10
292.5621117825182
 20
62.94225199318862
 30
0.0
 10
292.5544533818232
 20
62.27616422099815
 30
0.0
 10
292.55058267989
 20
61.93951074330267
 30
0.0
  0
LWPOLYLINE
  5
E2
330
1F
100
AcDbEntity
  8
0
  6
Continuous
 62
     7
370
    25
100
AcDbPolyline
 90
       49
 70
   128
 43
0.0
 10
240.4918268416
 20
159.9395107433
 10
240.5063155221
 20
160.5590630586
 10
240.6221299242
 20
161.7954585446
 10
240.8532523015
 20
163.0237384431
 10
241.1986720146
 20
164.2385317985
 10
241.656878631
 20
165.4345266288
 10
242.2258685297
 20
166.6064931527
 10
242.9031536628
 20
167.7493066588
 10
243.6857724347
 20
168.8579699146
 10
244.5703026525
 20
169.9276350175
 10
245.5528764907
 20
170.9536245944
 10
246.6291974039
 20
171.9314522538
 10
247.7945589147
 20
172.8568422042
 10
249.0438651935
 20
173.7257479507
 10
250.3716533421
 20
174.5343699897
 10
251.7721172805
 20
175.2791724227
 10
253.2391331364
 20
175.9568984181
 10
254.7662860227
 20
176.5645844527
 10
256.3468980883
 20
177.09957327
 10
257.9740577189
 20
177.5595255
 10
259.6406497594
 20
177.9424298886
 10
261.3393866269
 20
178.2466120925
 10
263.0628401773
 20
178.4707420002
 10
264.8034741866
 20
178.6138395486
 10
266.5536773053
 20
178.6752790086
 10
268.3057963405
 20
178.6547917211
 10
270.0521697213
 20
178.5524672717
 10
271.7851610014
 20
178.3687530993
 10
273.4971922509
 20
178.1044525391
 10
275.1807771926
 20
177.7607213103
 10
276.828553938
 20
177.3390624621
 10
278.4333171786
 20
176.8413198013
 10
279.9880496931
 20
176.26966983
 10
281.4859530319
 20
175.626612228
 10
282.9204772446
 20
174.9149589226
 10
284.285349522
 20
174.1378217926
 10
285.5746016248
 20
173.2985990609
 10
286.7825959817
 20
172.4009604351
 10
287.9040503406
 20
171.4488310605
 10
288.934060867
 20
170.4463743565
 10
289.868123587
 20
169.3979738113
 10
290.7021540819
 20
168.3082138137
 10
291.4325053485
 20
167.1818596068
 10
292.0559837467
 20
166.0238364511
 10
292.569862964
 20
164.8392080872
 10
292.9718959373
 20
163.6331545935
 10
293.2603246788
 20
162.4109497349
 10
293.4338879629
 20
161.1779379026
 10
293.4918268416
 20
159.9395107433
  0
SPLINE
  5
E3
330
1F
100
AcDbEntity
  8
0
  6
Continuous
 62
     7
370
    25
100
AcDbSpline
210
0.0
220
0.0
230
1.0
 70
     8
 71
     3
 72
    12
 73
     8
 74
     0
 42
0.00000001
 43
0.00000001
 40
0.0
 40
0.0
 40
0.0
 40
0.0
 40
0.21150666337198
 40
0.4290259469186074
 40
0.6405702372408449
 40
0.8585135817831129
 40
1.0
 40
1.0
 40
1.0
 40
1.0
 10
293.0254589355155
 20
152.8684429314372
 30
0.0
 10
293.0772051439759
 20
152.4827136150023
 30
0.0
 10
293.1821685797857
 20
151.7002896355425
 30
0.0
 10
293.3213779113563
 20
150.5606228938881
 30
0.0
 10
293.4266173179336
 20
149.477236740622
 30
0.0
 10
293.4860059573076
 20
148.5865458862195
 30
0.0
 10
293.4863734336833
 20
148.1175313288634
 30
0.0
 10
293.4865180875811
 20
147.9329078038038
 30
0.0
  0
SPLINE
  5
E4
330
1F
100
AcDbEntity
  8
0
  6
Continuous
 62
     7
370
    25
100
AcDbSpline
210
0.0
220
0.0
230
1.0
 70
     8
 71
     3
 72
    17
 73
    13
 74
     0
 42
0.00000001
 43
0.00000001
 40
0.0
 40
0.0
 40
0.0
 40
0.0
 40
0.072015782781206
 40
0.1811414435486285
 40
0.2880308198516038
 40
0.3981935008584797
 40
0.5020807537015027
 40
0.60911420472836
 40
0.7109360236353321
 40
0.8156063647898796
 40
0.9068482061206192
 40
1.0
 40
1.0
 40
1.0
 40
1.0
 10
293.0256082758457
 20
159.8474395691771
 30
0.0
 10
292.9901865007918
 20
159.8471636088539
 30
0.0
 10
292.9010900386203
 20
159.8464694852971
 30
0.0
 10
292.7676933358779
 20
159.618976612978
 30
0.0
 10
292.6451908914216
 20
159.1945007145547
 30
0.0
 10
292.5673944777185
 20
158.5862478862557
 30
0.0
 10
292.5416623060427
 20
157.8164273902931
 30
0.0
 10
292.5696435040269
 20
156.9304239782822
 30
0.0
 10
292.6468411429454
 20
155.9350384773302
 30
0.0
 10
292.7579331541141
 20
154.9146885110533
 30
0.0
 10
292.8891251411474
 20
153.8809868616303
 30
0.0
 10
292.9797016065137
 20
153.208280210648
 30
0.0
 10
293.0254589355155
 20
152.8684429314372
 30
0.0
  0
LINE
  5
E5
330
1F
100
AcDbEntity
  8
0
  6
Continuous
 62
     7
370
    25
100
AcDbLine
 10
308.4918268416
 20
61.9395107433
 30
0.0
 11
308.4918268416
 21
68.9395107433
 31
0.0
  0
LINE
  5
E6
330
1F
100
AcDbEntity
  8
0
  6
Continuous
 62
     7
370
    25
100
AcDbLine
 10
308.4918268416
 20
54.9395107433
 30
0.0
 11
308.4918268416
 21
61.9395107433
 31
0.0
  0
LINE
  5
E7
330
1F
100
AcDbEntity
  8
0
  6
Continuous
 62
     7
370
    25
100
AcDbLine
 10
308.4918268416
 20
152.8684429314
 30
0.0
 11
308.4918268416
 21
159.8684429314
 31
0.0
  0
LINE
  5
E8
330
1F
100
AcDbEntity
  8
0
  6
Continuous
 62
     7
370
    25
100
AcDbLine
 10
308.4918268416
 20
145.8684429314
 30
0.0
 11
308.4918268416
 21
152.8684429314
 31
0.0
  0
LINE
  5
E9
330
1F
100
AcDbEntity
  8
0
  6
Continuous
 62
     1
370
    25
100
AcDbLine
 10
240.4918268416
 20
102.7780391358
 30
0.0
 11
293.4918268416
 21
102.7780391358
 31
0.0
  0
LWPOLYLINE
  5
EA
330
1F
100
AcDbEntity
  8
0
  6
Continuous
 62
     1
370
    25
100
AcDbPolyline
 90
       49
 70
   128
 43
0.0
 10
240.4918268416
 20
123.9912425714
 10
240.5063155221
 20
124.6107948867
 10
240.6221299242
 20
125.8471903727
 10
240.8532523015
 20
127.0754702712
 10
241.1986720146
 20
128.2902636266
 10
241.656878631
 20
129.4862584569
 10
242.2258685297
 20
130.6582249808
 10
242.9031536628
 20
131.801038487
 10
243.6857724347
 20
132.9097017427
 10
244.5703026525
 20
133.9793668456
 10
245.5528764907
 20
135.0053564225
 10
246.6291974039
 20
135.9831840819
 10
247.7945589147
 20
136.9085740323
 10
249.0438651935
 20
137.7774797788
 10
250.3716533421
 20
138.5861018178
 10
251.7721172805
 20
139.3309042508
 10
253.2391331364
 20
140.0086302462
 10
254.7662860227
 20
140.6163162808
 10
256.3468980883
 20
141.1513050981
 10
257.9740577189
 20
141.6112573281
 10
259.6406497594
 20
141.9941617167
 10
261.3393866269
 20
142.2983439206
 10
263.0628401773
 20
142.5224738283
 10
264.8034741866
 20
142.6655713767
 10
266.5536773053
 20
142.7270108367
 10
268.3057963405
 20
142.7065235492
 10
270.0521697213
 20
142.6041990998
 10
271.7851610014
 20
142.4204849274
 10
273.4971922509
 20
142.1561843673
 10
275.1807771926
 20
141.8124531385
 10
276.828553938
 20
141.3907942902
 10
278.4333171786
 20
140.8930516295
 10
279.9880496931
 20
140.3214016581
 10
281.4859530319
 20
139.6783440561
 10
282.9204772446
 20
138.9666907507
 10
284.285349522
 20
138.1895536207
 10
285.5746016248
 20
137.350330889
 10
286.7825959817
 20
136.4526922632
 10
287.9040503406
 20
135.5005628886
 10
288.934060867
 20
134.4981061846
 10
289.868123587
 20
133.4497056394
 10
290.7021540819
 20
132.3599456418
 10
291.4325053485
 20
131.2335914349
 10
292.0559837467
 20
130.0755682793
 10
292.569862964
 20
128.8909399153
 10
292.9718959373
 20
127.6848864216
 10
293.2603246788
 20
126.4626815631
 10
293.4338879629
 20
125.2296697307
 10
293.4918268416
 20
123.9912425714
  0
INSERT
  5
F6
330
1F
100
AcDbEntity
  8
FORMAT
 62
     7
100
AcDbBlockReference
  2
SW_CENTERMARKSYMBOL_2
 10
266.9918268416
 20
116.9395107433
 30
0.0
  0
LINE
  5
F7
330
1F
100
AcDbEntity
  8
0
  6
Continuous
 62
     7
370
    25
100
AcDbLine
 10
163.9329490104
 20
11.2970622773
 30
0.0
 11
127.9846808385
 21
11.2970622773
 31
0.0
  0
LINE
  5
F8
330
1F
100
AcDbEntity
  8
0
  6
Continuous
 62
     7
370
    25
100
AcDbLine
 10
161.7937690614
 20
-41.7029377227
 30
0.0
 11
163.9329490104
 21
-41.7029377227
 31
0.0
  0
LINE
  5
F9
330
1F
100
AcDbEntity
  8
0
  6
Continuous
 62
     7
370
    25
100
AcDbLine
 10
127.9846808385
 20
-41.7029377227
 30
0.0
 11
149.8618811986
 21
-41.7029377227
 31
0.0
  0
LINE
  5
FA
330
1F
100
AcDbEntity
  8
0
  6
Continuous
 62
     7
370
    25
100
AcDbLine
 10
149.8618811986
 20
-41.2365698166
 30
0.0
 11
149.8618811986
 21
-56.7029377227
 31
0.0
  0
LINE
  5
FB
330
1F
100
AcDbEntity
  8
0
  6
Continuous
 62
     7
370
    25
100
AcDbLine
 10
163.8618811986
 20
-56.7029377227
 30
0.0
 11
163.8618811986
 21
-41.7029377227
 31
0.0
  0
LINE
  5
FC
330
1F
100
AcDbEntity
  8
0
  6
Continuous
 62
     7
370
    25
100
AcDbLine
 10
119.1978842741
 20
-41.7029377227
 30
0.0
 11
127.9846808385
 21
-41.7029377227
 31
0.0
  0
LINE
  5
FD
330
1F
100
AcDbEntity
  8
0
  6
Continuous
 62
     7
370
    25
100
AcDbLine
 10
127.9846808385
 20
11.2970622773
 30
0.0
 11
119.1978842741
 21
11.2970622773
 31
0.0
  0
LINE
  5
FE
330
1F
100
AcDbEntity
  8
0
  6
Continuous
 62
     7
370
    25
100
AcDbLine
 10
112.1978842741
 20
-40.761693561
 30
0.0
 11
112.1978842741
 21
-56.7029377227
 31
0.0
  0
LINE
  5
FF
330
1F
100
AcDbEntity
  8
0
  6
Continuous
 62
     7
370
    25
100
AcDbLine
 10
126.1978842741
 20
-56.7029377227
 30
0.0
 11
126.1978842741
 21
-41.7029377227
 31
0.0
  0
LWPOLYLINE
  5
100
330
1F
100
AcDbEntity
  8
0
  6
Continuous
 62
     7
370
    25
100
AcDbPolyline
 90
       96
 70
   128
 43
0.0
 10
163.9329490104
 20
-41.7029377227
 10
165.1713761697
 20
-41.644998844
 10
166.4043880021
 20
-41.4714355599
 10
167.6265928606
 20
-41.1830068184
 10
168.8326463543
 20
-40.7809738451
 10
170.0172747183
 20
-40.2670946278
 10
171.175297874
 20
-39.6436162296
 10
172.3016520808
 20
-38.913264963
 10
173.3914120784
 20
-38.0792344681
 10
174.4398126236
 20
-37.1451717482
 10
175.4422693276
 20
-36.1151612217
 10
176.3943987023
 20
-34.9937068628
 10
177.292037328
 20
-33.785712506
 10
178.1312600597
 20
-32.4964604031
 10
178.9083971897
 20
-31.1315881257
 10
179.6200504951
 20
-29.697063913
 10
180.2631080971
 20
-28.1991605742
 10
180.8347580685
 20
-26.6444280597
 10
181.3325007293
 20
-25.0396648191
 10
181.7541595775
 20
-23.3918880737
 10
182.0978908063
 20
-21.708303132
 10
182.3621913664
 20
-19.9962718825
 10
182.5459055389
 20
-18.2632806024
 10
182.6482299882
 20
-16.5169072216
 10
182.6687172757
 20
-14.7647881864
 10
182.6072778157
 20
-13.0145850677
 10
182.4641802673
 20
-11.2739510584
 10
182.2400503596
 20
-9.550497508
 10
181.9358681558
 20
-7.8517606406
 10
181.5529637671
 20
-6.1851686
 10
181.0930115371
 20
-4.5580089694
 10
180.5580227198
 20
-2.9773969038
 10
179.9503366852
 20
-1.4502440175
 10
179.2726106898
 20
0.0167718384
 10
178.5278082568
 20
1.4172357768
 10
177.7191862179
 20
2.7450239253
 10
176.8502804713
 20
3.9943302042
 10
175.9248905209
 20
5.159691715
 10
174.9470628615
 20
6.2360126282
 10
173.9210732847
 20
7.2185864664
 10
172.8514081817
 20
8.1031166842
 10
171.742744926
 20
8.8857354561
 10
170.5999314198
 20
9.5630205891
 10
169.4279648959
 20
10.1320104879
 10
168.2319700657
 20
10.5902171043
 10
167.0171767102
 20
10.9356368174
 10
165.7888968117
 20
11.1667591947
 10
164.5525013257
 20
11.2825735968
 10
163.3133966951
 20
11.2825735968
 10
162.0770012091
 20
11.1667591947
 10
160.8487213107
 20
10.9356368174
 10
159.6339279552
 20
10.5902171043
 10
158.437933125
 20
10.1320104879
 10
157.265966601
 20
9.5630205891
 10
156.1231530949
 20
8.8857354561
 10
155.0144898392
 20
8.1031166842
 10
153.9448247362
 20
7.2185864664
 10
152.9188351593
 20
6.2360126282
 10
151.9410074999
 20
5.159691715
 10
151.0156175495
 20
3.9943302042
 10
150.146711803
 20
2.7450239253
 10
149.338089764
 20
1.4172357768
 10
148.593287331
 20
0.0167718384
 10
147.9155613356
 20
-1.4502440175
 10
147.307875301
 20
-2.9773969038
 10
146.7728864838
 20
-4.5580089694
 10
146.3129342538
 20
-6.1851686
 10
145.9300298651
 20
-7.8517606406
 10
145.6258476612
 20
-9.550497508
 10
145.4017177536
 20
-11.2739510584
 10
145.2586202051
 20
-13.0145850677
 10
145.1971807451
 20
-14.7647881864
 10
145.2176680326
 20
-16.5169072216
 10
145.319992482
 20
-18.2632806024
 10
145.5037066544
 20
-19.9962718825
 10
145.7680072146
 20
-21.708303132
 10
146.1117384434
 20
-23.3918880737
 10
146.5333972916
 20
-25.0396648191
 10
147.0311399524
 20
-26.6444280597
 10
147.6027899237
 20
-28.1991605742
 10
148.2458475257
 20
-29.697063913
 10
148.9575008312
 20
-31.1315881257
 10
149.7346379612
 20
-32.4964604031
 10
150.5738606928
 20
-33.785712506
 10
151.4714993186
 20
-34.9937068628
 10
152.4236286932
 20
-36.1151612217
 10
153.4260853972
 20
-37.1451717482
 10
154.4744859424
 20
-38.0792344681
 10
155.56424594
 20
-38.913264963
 10
156.6906001469
 20
-39.6436162296
 10
157.8486233026
 20
-40.2670946278
 10
159.0332516665
 20
-40.7809738451
 10
160.2393051603
 20
-41.1830068184
 10
161.4615100188
 20
-41.4714355599
 10
162.6945218512
 20
-41.644998844
 10
163.9329490104
 20
-41.7029377227
  0
LWPOLYLINE
  5
101
330
1F
100
AcDbEntity
  8
0
  6
Continuous
 62
     7
370
    25
100
AcDbPolyline
 90
       83
 70
   128
 43
0.0
 10
163.9329490104
 20
-35.2029377227
 10
162.8503790949
 20
-35.1442537464
 10
161.7741621301
 20
-34.9685461983
 10
160.7106137852
 20
-34.6768462003
 10
159.6659753846
 20
-34.2708655638
 10
158.646377282
 20
-33.7529867448
 10
157.6578028844
 20
-33.126248862
 10
156.7060535394
 20
-32.3943298625
 10
155.7967144907
 20
-31.5615249381
 10
154.9351221015
 20
-30.6327213192
 10
154.1263325383
 20
-29.6133695948
 10
153.3750921001
 20
-28.5094517261
 10
152.6858093643
 20
-27.3274459421
 10
152.0625293162
 20
-26.0742887228
 10
151.5089096109
 20
-24.757334093
 10
151.0281991091
 20
-23.3843104662
 10
150.623218811
 20
-21.9632752909
 10
150.2963453021
 20
-20.5025677667
 10
150.0494968061
 20
-19.010759906
 10
149.8841219281
 20
-17.4966062307
 10
149.8011911538
 20
-15.9689923965
 10
149.8011911538
 20
-14.4368830489
 10
149.8841219281
 20
-12.9092692148
 10
150.0494968061
 20
-11.3951155394
 10
150.2963453021
 20
-9.9033076788
 10
150.623218811
 20
-8.4426001546
 10
151.0281991091
 20
-7.0215649793
 10
151.5089096109
 20
-5.6485413525
 10
152.0625293162
 20
-4.3315867227
 10
152.6858093643
 20
-3.0784295034
 10
153.3750921001
 20
-1.8964237194
 10
154.1263325383
 20
-0.7925058507
 10
154.9351221015
 20
0.2268458737
 10
155.7967144908
 20
1.1556494926
 10
156.7060535394
 20
1.988454417
 10
157.6578028844
 20
2.7203734165
 10
158.646377282
 20
3.3471112993
 10
159.6659753846
 20
3.8649901184
 10
160.7106137852
 20
4.2709707548
 10
161.7741621301
 20
4.5626707529
 10
162.8503790949
 20
4.7383783009
 10
163.9329490104
 20
4.7970622773
 10
165.0155189259
 20
4.7383783009
 10
166.0917358907
 20
4.5626707529
 10
167.1552842357
 20
4.2709707548
 10
168.1999226362
 20
3.8649901184
 10
169.2195207389
 20
3.3471112993
 10
170.2080951365
 20
2.7203734165
 10
171.1598444814
 20
1.988454417
 10
172.0691835301
 20
1.1556494926
 10
172.9307759194
 20
0.2268458737
 10
173.7395654825
 20
-0.7925058507
 10
174.4908059208
 20
-1.8964237194
 10
175.1800886566
 20
-3.0784295034
 10
175.8033687047
 20
-4.3315867227
 10
176.3569884099
 20
-5.6485413525
 10
176.8376989118
 20
-7.0215649793
 10
177.2426792099
 20
-8.4426001546
 10
177.5695527188
 20
-9.9033076788
 10
177.8164012148
 20
-11.3951155394
 10
177.9817760927
 20
-12.9092692148
 10
178.0647068671
 20
-14.4368830489
 10
178.0647068671
 20
-15.9689923965
 10
177.9817760927
 20
-17.4966062307
 10
177.8164012148
 20
-19.010759906
 10
177.5695527188
 20
-20.5025677667
 10
177.2426792099
 20
-21.9632752909
 10
176.8376989118
 20
-23.3843104662
 10
176.3569884099
 20
-24.757334093
 10
175.8033687047
 20
-26.0742887228
 10
175.1800886566
 20
-27.3274459421
 10
174.4908059208
 20
-28.5094517261
 10
173.7395654825
 20
-29.6133695948
 10
172.9307759194
 20
-30.6327213192
 10
172.0691835301
 20
-31.5615249381
 10
171.1598444814
 20
-32.3943298625
 10
170.2080951365
 20
-33.126248862
 10
169.2195207389
 20
-33.7529867448
 10
168.1999226362
 20
-34.2708655638
 10
167.1552842357
 20
-34.6768462003
 10
166.0917358907
 20
-34.9685461983
 10
165.0155189259
 20
-35.1442537464
 10
163.9329490104
 20
-35.2029377227
  0
SPLINE
  5
102
330
1F
100
AcDbEntity
  8
0
  6
Continuous
 62
     7
370
    25
100
AcDbSpline
210
0.0
220
0.0
230
1.0
 70
     8
 71
     3
 72
    22
 73
    18
 74
     0
 42
0.00000001
 43
0.00000001
 40
0.0
 40
0.0
 40
0.0
 40
0.0
 40
0.0330443059141781
 40
0.1011876508363681
 40
0.1712825425549343
 40
0.2399824875412875
 40
0.3105625126752876
 40
0.3813042152595243
 40
0.4540593172009887
 40
0.525323467307323
 40
0.5987699603726185
 40
0.6680325665997804
 40
0.7393927726763558
 40
0.8072783347187314
 40
0.8770630332707733
 40
0.9378948249929144
 40
1.0
 40
1.0
 40
1.0
 40
1.0
 10
161.7937603011558
 20
-41.69627749302645
 30
0.0
 10
161.6686872640971
 20
-41.69775178046313
 30
0.0
 10
161.2856909670705
 20
-41.70226631566814
 30
0.0
 10
160.4989134240881
 20
-41.65585143412248
 30
0.0
 10
159.4821269402728
 20
-41.56619166142291
 30
0.0
 10
158.3789042483565
 20
-41.43767733723977
 30
0.0
 10
157.2359068465196
 20
-41.28761100446791
 30
0.0
 10
156.0608693558412
 20
-41.12800245455871
 30
0.0
 10
154.9028331929291
 20
-40.97880068866616
 30
0.0
 10
153.7836610880301
 20
-40.85630274347613
 30
0.0
 10
152.7666873515366
 20
-40.77850511222393
 30
0.0
 10
151.8645201215014
 20
-40.75277325387543
 30
0.0
 10
151.1222546564719
 20
-40.78075436802679
 30
0.0
 10
150.5345203559385
 20
-40.85795202870663
 30
0.0
 10
150.140784935181
 20
-40.96904403415282
 30
0.0
 10
149.9044848943619
 20
-41.10023602252041
 30
0.0
 10
149.8761801574827
 20
-41.19081248771442
 30
0.0
 10
149.8618811985594
 20
-41.23656981662905
 30
0.0
  0
LINE
  5
103
330
1F
100
AcDbEntity
  8
0
  6
Continuous
 62
     7
370
    25
100
AcDbLine
 10
149.8618811986
 20
-56.7029377227
 30
0.0
 11
163.8618811986
 21
-56.7029377227
 31
0.0
  0
ARC
  5
104
330
1F
100
AcDbEntity
  8
0
  6
Continuous
 62
     7
370
    25
100
AcDbCircle
 10
119.1978842741
 20
-15.2029377227
 30
0.0
 40
26.50000000000001
100
AcDbArc
 50
90.0
 51
270.0
  0
LINE
  5
105
330
1F
100
AcDbEntity
  8
0
  6
Continuous
 62
     7
370
    25
100
AcDbLine
 10
112.1978842741
 20
-56.7029377227
 30
0.0
 11
126.1978842741
 21
-56.7029377227
 31
0.0
  0
LWPOLYLINE
  5
106
330
1F
100
AcDbEntity
  8
0
  6
Continuous
 62
     1
370
    25
100
AcDbPolyline
 90
       49
 70
   128
 43
0.0
 10
127.9846808385
 20
11.2970622773
 10
127.3651285232
 20
11.2825735968
 10
126.1287330372
 20
11.1667591947
 10
124.9004531388
 20
10.9356368174
 10
123.6856597833
 20
10.5902171043
 10
122.4896649531
 20
10.1320104879
 10
121.3176984292
 20
9.5630205891
 10
120.174884923
 20
8.8857354561
 10
119.0662216673
 20
8.1031166842
 10
117.9965565643
 20
7.2185864664
 10
116.9705669874
 20
6.2360126282
 10
115.992739328
 20
5.159691715
 10
115.0673493777
 20
3.9943302042
 10
114.1984436311
 20
2.7450239253
 10
113.3898215921
 20
1.4172357768
 10
112.6450191592
 20
0.0167718384
 10
111.9672931637
 20
-1.4502440175
 10
111.3596071292
 20
-2.9773969038
 10
110.8246183119
 20
-4.5580089694
 10
110.3646660819
 20
-6.1851686
 10
109.9817616932
 20
-7.8517606406
 10
109.6775794893
 20
-9.550497508
 10
109.4534495817
 20
-11.2739510584
 10
109.3103520332
 20
-13.0145850677
 10
109.2489125732
 20
-14.7647881864
 10
109.2693998607
 20
-16.5169072216
 10
109.3717243101
 20
-18.2632806024
 10
109.5554384825
 20
-19.9962718825
 10
109.8197390427
 20
-21.708303132
 10
110.1634702715
 20
-23.3918880737
 10
110.5851291197
 20
-25.0396648191
 10
111.0828717805
 20
-26.6444280597
 10
111.6545217518
 20
-28.1991605742
 10
112.2975793539
 20
-29.697063913
 10
113.0092326593
 20
-31.1315881257
 10
113.7863697893
 20
-32.4964604031
 10
114.6255925209
 20
-33.785712506
 10
115.5232311467
 20
-34.9937068628
 10
116.4753605213
 20
-36.1151612217
 10
117.4778172253
 20
-37.1451717482
 10
118.5262177705
 20
-38.0792344681
 10
119.6159777682
 20
-38.913264963
 10
120.742331975
 20
-39.6436162296
 10
121.9003551307
 20
-40.2670946278
 10
123.0849834946
 20
-40.7809738451
 10
124.2910369884
 20
-41.1830068184
 10
125.5132418469
 20
-41.4714355599
 10
126.7462536793
 20
-41.644998844
 10
127.9846808385
 20
-41.7029377227
  0
INSERT
  5
112
330
1F
100
AcDbEntity
  8
FORMAT
 62
     7
100
AcDbBlockReference
  2
SW_CENTERMARKSYMBOL_3
 10
119.1978842741
 20
-15.2029377227
 30
0.0
  0
LINE
  5
113
330
1F
100
AcDbEntity
  8
0
  6
Continuous
 62
     7
370
    25
100
AcDbLine
 10
229.1044306025
 20
-44.4281218969
 30
0.0
 11
229.1044306025
 21
-54.514293234
 31
0.0
  0
LINE
  5
114
330
1F
100
AcDbEntity
  8
0
  6
Continuous
 62
     7
370
    25
100
AcDbLine
 10
229.1044306025
 20
-70.5590074841
 30
0.0
 11
229.1044306025
 21
-85.9398551456
 31
0.0
  0
LINE
  5
115
330
1F
100
AcDbEntity
  8
0
  6
Continuous
 62
     7
370
    25
100
AcDbLine
 10
282.1044306025
 20
-85.9398551456
 30
0.0
 11
282.1044306025
 21
-44.4281218969
 31
0.0
  0
LINE
  5
116
330
1F
100
AcDbEntity
  8
0
  6
Continuous
 62
     7
370
    25
100
AcDbLine
 10
240.695471874
 20
-61.0850035251
 30
0.0
 11
229.7592147475
 21
-54.7716366697
 31
0.0
  0
LINE
  5
117
330
1F
100
AcDbEntity
  8
0
  6
Continuous
 62
     7
370
    25
100
AcDbLine
 10
222.759783619
 20
-66.896320743
 30
0.0
 11
233.6959656747
 21
-73.2096442609
 31
0.0
  0
LINE
  5
118
330
1F
100
AcDbEntity
  8
0
  6
Continuous
 62
     7
370
    25
100
AcDbLine
 10
264.2872250509
 20
33.7575874341
 30
0.0
 11
262.7866033675
 21
31.1584344432
 31
0.0
  0
LINE
  5
119
330
1F
100
AcDbEntity
  8
0
  6
Continuous
 62
     7
370
    25
100
AcDbLine
 10
255.7866033444
 20
19.0340787858
 30
0.0
 11
238.8679608546
 21
-10.2698695156
 31
0.0
  0
LINE
  5
11A
330
1F
100
AcDbEntity
  8
0
  6
Continuous
 62
     7
370
    25
100
AcDbLine
 10
284.7673072215
 20
-36.769869574
 30
0.0
 11
310.1865714178
 21
7.2575873757
 31
0.0
  0
SPLINE
  5
11B
330
1F
100
AcDbEntity
  8
0
  6
Continuous
 62
     7
370
    25
100
AcDbSpline
210
0.0
220
0.0
230
1.0
 70
     8
 71
     3
 72
    21
 73
    17
 74
     0
 42
0.00000001
 43
0.00000001
 40
0.0
 40
0.0
 40
0.0
 40
0.0
 40
0.0445989312914593
 40
0.1191619709731552
 40
0.1921999156793248
 40
0.2646271671198744
 40
0.336920739501844
 40
0.4094619437200945
 40
0.4824440112851673
 40
0.5560921553971072
 40
0.6305381401979235
 40
0.7058284893243499
 40
0.7819345459021619
 40
0.8587647064952506
 40
0.9361780598389586
 40
1.0
 40
1.0
 40
1.0
 40
1.0
 10
282.1044306024829
 20
-44.42812189686204
 30
0.0
 10
282.1045557956429
 20
-44.40887859582776
 30
0.0
 10
282.1048902938757
 20
-44.35746324543992
 30
0.0
 10
282.1118685589331
 20
-44.19371094338749
 30
0.0
 10
282.1364790506103
 20
-43.91547423562812
 30
0.0
 10
282.1847727834472
 20
-43.54811522601099
 30
0.0
 10
282.2630067015831
 20
-43.09787658354754
 30
0.0
 10
282.3766177940989
 20
-42.57031794073197
 30
0.0
 10
282.5300533555271
 20
-41.97265030034843
 30
0.0
 10
282.7266861928138
 20
-41.31302320310765
 30
0.0
 10
282.9688007308941
 20
-40.60037348385455
 30
0.0
 10
283.2574587259095
 20
-39.84472597368325
 30
0.0
 10
283.5921182759665
 20
-39.05694127166274
 30
0.0
 10
283.9715512217672
 20
-38.24914586810708
 30
0.0
 10
284.3647943454209
 20
-37.48140662173611
 30
0.0
 10
284.6420292577436
 20
-36.99132811056064
 30
0.0
 10
284.7673072215283
 20
-36.76986957397042
 30
0.0
  0
SPLINE
  5
11C
330
1F
100
AcDbEntity
  8
0
  6
Continuous
 62
     7
370
    25
100
AcDbSpline
210
0.0
220
0.0
230
1.0
 70
     8
 71
     3
 72
    23
 73
    19
 74
     0
 42
0.00000001
 43
0.00000001
 40
0.0
 40
0.0
 40
0.0
 40
0.0
 40
0.0381888274038545
 40
0.1046400572275542
 40
0.171173953553058
 40
0.237835035742699
 40
0.3046707857354968
 40
0.3717258379162983
 40
0.4390400016452343
 40
0.5066457480372082
 40
0.57456503791915
 40
0.6428054475715997
 40
0.7113557068630526
 40
0.7801810295902042
 40
0.849218987889829
 40
0.9183620498703194
 40
0.9824496126313439
 40
1.0
 40
1.0
 40
1.0
 40
1.0
 10
238.8679608546304
 20
-10.26986951563958
 30
0.0
 10
238.6357222613842
 20
-10.67716295365508
 30
0.0
 10
237.9993722778999
 20
-11.7931754515421
 30
0.0
 10
237.0128062939569
 20
-13.64839470553213
 30
0.0
 10
235.9283788584449
 20
-15.84224194208845
 30
0.0
 10
234.9149402350805
 20
-18.0692603996269
 30
0.0
 10
233.9731952153444
 20
-20.32660848146464
 30
0.0
 10
233.1055530695276
 20
-22.61240077219242
 30
0.0
 10
232.3142539041947
 20
-24.92444106524042
 30
0.0
 10
231.6019035901686
 20
-27.26044370314351
 30
0.0
 10
230.9713405095495
 20
-29.617837498448
 30
0.0
 10
230.4256724844904
 20
-31.99364846944028
 30
0.0
 10
229.9681965839615
 20
-34.3843380756777
 30
0.0
 10
229.6024515399427
 20
-36.78562222956457
 30
0.0
 10
229.3316434138469
 20
-39.19220579627928
 30
0.0
 10
229.1643452494195
 20
-41.53918487407717
 30
0.0
 10
229.1084036022625
 20
-43.28381245885529
 30
0.0
 10
229.1051335851814
 20
-44.22564775107887
 30
0.0
 10
229.1044306024829
 20
-44.42812189686203
 30
0.0
  0
LINE
  5
11D
330
1F
100
AcDbEntity
  8
0
  6
Continuous
 62
     7
370
    25
100
AcDbLine
 10
267.0029846063
 20
28.7243693646
 30
0.0
 11
256.3916823793
 21
34.8501437495
 31
0.0
  0
LINE
  5
11E
330
1F
100
AcDbEntity
  8
0
  6
Continuous
 62
     7
370
    25
100
AcDbLine
 10
249.3922512509
 20
22.7254596761
 30
0.0
 11
260.0029462404
 21
16.600035842
 31
0.0
  0
LWPOLYLINE
  5
11F
330
1F
100
AcDbEntity
  8
0
  6
Continuous
 62
     7
370
    25
100
AcDbPolyline
 90
       96
 70
   128
 43
0.0
 10
236.866100901
 20
-75.1224476639
 10
238.1454970343
 20
-74.4311697678
 10
239.5012366419
 20
-73.7902164247
 10
240.9273914194
 20
-73.2023903603
 10
242.4177251548
 20
-72.6702619886
 10
243.965720998
 20
-72.1961581715
 10
245.564609957
 20
-71.7821520443
 10
247.2074004971
 20
-71.4300539505
 10
248.8869091134
 20
-71.1414035255
 10
250.5957917419
 20
-70.9174629642
 10
252.3265758738
 20
-70.7592115016
 10
254.0716932305
 20
-70.6673411311
 10
255.8235128576
 20
-70.6422535785
 10
257.5743744938
 20
-70.6840585453
 10
259.3166220666
 20
-70.792573229
 10
261.0426371707
 20
-70.9673231225
 10
262.7448723811
 20
-71.2075440889
 10
264.4158842564
 20
-71.5121857031
 10
266.0483658868
 20
-71.8799158449
 10
267.6351788456
 20
-72.3091265238
 10
269.1693844034
 20
-72.7979409108
 10
270.6442738696
 20
-73.344221545
 10
272.0533979279
 20
-73.9455796801
 10
273.3905948374
 20
-74.5993857301
 10
274.6500173761
 20
-75.3027807673
 10
275.8261584098
 20
-76.0526890244
 10
276.9138749729
 20
-76.8458313432
 10
277.9084107577
 20
-77.6787395142
 10
278.8054169123
 20
-78.547771442
 10
279.600971057
 20
-79.4491270709
 10
280.2915944358
 20
-80.3788650023
 10
280.8742671286
 20
-81.3329197286
 10
281.3464412558
 20
-82.3071194113
 10
281.7060521202
 20
-83.2972041231
 10
281.9515272349
 20
-84.2988444755
 10
282.0817931997
 20
-85.3076605499
 10
282.0962803948
 20
-86.3192410505
 10
281.9949254712
 20
-87.329162593
 10
281.7781716283
 20
-88.3330090475
 10
281.4469666754
 20
-89.326390849
 10
281.0027588876
 20
-90.3049641915
 10
280.4474906725
 20
-91.2644500227
 10
279.7835900768
 20
-92.2006527554
 10
279.0139601687
 20
-93.1094786131
 10
278.1419663441
 20
-93.9869535315
 10
277.1714216101
 20
-94.8292405363
 10
276.1065699119
 20
-95.6326565205
 10
274.952067575
 20
-96.3936883505
 10
273.7129629444
 20
-97.1090082277
 10
272.3946743094
 20
-97.7754882404
 10
271.0029662106
 20
-98.3902140409
 10
269.5439242337
 20
-98.9504975899
 10
268.0239283978
 20
-99.4538889099
 10
266.449625258
 20
-99.8981867986
 10
264.8278988415
 20
-100.2814484546
 10
263.1658405451
 20
-100.6019979721
 10
261.4707181269
 20
-100.8584336696
 10
259.749943926
 20
-101.049634219
 10
258.0110424502
 20
-101.1747635491
 10
256.261617473
 20
-101.2332745011
 10
254.5093187849
 20
-101.2249112214
 10
252.7618087421
 20
-101.1497102806
 10
251.0267287614
 20
-101.0080005133
 10
249.3116659062
 20
-100.8004015801
 10
247.6241197098
 20
-100.5278212585
 10
245.9714693825
 20
-100.1914514728
 10
244.3609415437
 20
-99.7927630825
 10
242.7995786217
 20
-99.3334994505
 10
241.2942080594
 20
-98.8156688198
 10
239.8514124592
 20
-98.241535532
 10
238.4775007992
 20
-97.6136101259
 10
237.1784808455
 20
-96.9346383594
 10
235.9600328818
 20
-96.2075892035
 10
234.8274848711
 20
-95.435641859
 10
233.7857891576
 20
-94.6221718554
 10
232.8395008117
 20
-93.7707362898
 10
231.9927577115
 20
-92.8850582735
 10
231.2492624492
 20
-91.969010651
 10
230.6122661403
 20
-91.0265990656
 10
230.0845542077
 20
-90.0619444432
 10
229.6684342013
 20
-89.0792649732
 10
229.3657257081
 20
-88.0828576627
 10
229.1777523953
 20
-87.0770795475
 10
229.1053362224
 20
-86.0663286394
 10
229.1487938468
 20
-85.0550246948
 10
229.3079352395
 20
-84.0475898887
 10
229.5820645155
 20
-83.0484294771
 10
229.9699829774
 20
-82.0619125342
 10
230.4699943564
 20
-81.0923528477
 10
231.0799122299
 20
-80.1439900554
 10
231.7970695823
 20
-79.2209711064
 10
232.618330467
 20
-78.3273321277
 10
233.5401037191
 20
-77.4669807754
 10
234.5583586586
 20
-76.6436791468
 10
235.6686427158
 20
-75.8610273305
 10
236.866100901
 20
-75.1224476639
  0
SPLINE
  5
120
330
1F
100
AcDbEntity
  8
0
  6
Continuous
 62
     7
370
    25
100
AcDbSpline
210
0.0
220
0.0
230
1.0
 70
     8
 71
     3
 72
    27
 73
    23
 74
     0
 42
0.00000001
 43
0.00000001
 40
0.0
 40
0.0
 40
0.0
 40
0.0
 40
0.0129770248344511
 40
0.0664940483546648
 40
0.1208540457197285
 40
0.1752050932211813
 40
0.2283297028609514
 40
0.2814520814371731
 40
0.3332552370659823
 40
0.3850648646065399
 40
0.4373832932740583
 40
0.489707258511787
 40
0.5436140623664673
 40
0.5975165514267231
 40
0.651740892067349
 40
0.7059559716432363
 40
0.7585748094801873
 40
0.8111946445427498
 40
0.8628240858988109
 40
0.9144614188931296
 40
0.967218205661601
 40
1.0
 40
1.0
 40
1.0
 40
1.0
 10
233.7055894020057
 20
-73.19388130254679
 30
0.0
 10
233.741217427987
 20
-73.22065466808505
 30
0.0
 10
233.923774810176
 20
-73.35784092498356
 30
0.0
 10
234.352858100696
 20
-73.43994808567037
 30
0.0
 10
234.9956977288056
 20
-73.42590090244278
 30
0.0
 10
235.7286062579342
 20
-73.23133045640252
 30
0.0
 10
236.5245487730416
 20
-72.87937563251076
 30
0.0
 10
237.3533642536217
 20
-72.3907913860485
 30
0.0
 10
238.1969739104296
 20
-71.77734663510945
 30
0.0
 10
239.0299964948139
 20
-71.06055760024907
 30
0.0
 10
239.8319750091024
 20
-70.2478194663347
 30
0.0
 10
240.5834250125228
 20
-69.34981649399731
 30
0.0
 10
241.2493977271545
 20
-68.38241439361127
 30
0.0
 10
241.804383582928
 20
-67.36365458768614
 30
0.0
 10
242.2099445338841
 20
-66.32355749725183
 30
0.0
 10
242.4495754798526
 20
-65.29859856261737
 30
0.0
 10
242.506625374358
 20
-64.3187744490297
 30
0.0
 10
242.3935753243937
 20
-63.41581882966771
 30
0.0
 10
242.1136748984929
 20
-62.60583622155172
 30
0.0
 10
241.6837017620969
 20
-61.91087907249941
 30
0.0
 10
241.2007433069551
 20
-61.39646810473149
 30
0.0
 10
240.827115814507
 20
-61.18536815410752
 30
0.0
 10
240.683926864467
 20
-61.10446623737413
 30
0.0
  0
LWPOLYLINE
  5
121
330
1F
100
AcDbEntity
  8
0
  6
Continuous
 62
     7
370
    25
100
AcDbPolyline
 90
       83
 70
   128
 43
0.0
 10
241.4622949788
 20
-77.7757740273
 10
240.4212209008
 20
-78.4246833742
 10
239.4692479348
 20
-79.1176947373
 10
238.6119626365
 20
-79.8507412503
 10
237.8543958971
 20
-80.619521105
 10
237.2009934192
 20
-81.4195227953
 10
236.6555896286
 20
-82.2460515933
 10
236.2213851714
 20
-83.0942570993
 10
235.9009281322
 20
-83.9591617061
 10
235.6960990802
 20
-84.8356898097
 10
235.6081000338
 20
-85.7186975945
 10
235.6374474064
 20
-86.6030032197
 10
235.7839689759
 20
-87.4834172283
 10
236.0468048955
 20
-88.3547730009
 10
236.4244127394
 20
-89.2119570752
 10
236.9145765548
 20
-90.0499391544
 10
237.5144198655
 20
-90.8638016262
 10
238.2204225523
 20
-91.6487684222
 10
239.0284415108
 20
-92.400233045
 10
239.9337349644
 20
-93.1137856015
 10
240.9309902913
 20
-93.7852386815
 10
242.0143552005
 20
-94.4106519313
 10
243.177472076
 20
-94.9863551772
 10
244.4135152855
 20
-95.5089699639
 10
245.715231236
 20
-95.9754293797
 10
247.0749809406
 20
-96.3829960555
 10
248.4847848474
 20
-96.7292782279
 10
249.9363696665
 20
-97.0122437755
 10
251.421216921
 20
-97.2302321438
 10
252.9306129368
 20
-97.3819640904
 10
254.4556999778
 20
-97.4665491921
 10
255.9875282269
 20
-97.4834910696
 10
257.5171083068
 20
-97.4326903015
 10
259.0354640334
 20
-97.3144450067
 10
260.5336850915
 20
-97.1294490957
 10
262.0029793243
 20
-96.8787881981
 10
263.4347243289
 20
-96.5639332916
 10
264.8205180563
 20
-96.1867320701
 10
266.1522281179
 20
-95.7493981003
 10
267.4220395096
 20
-95.2544978319
 10
268.6225004731
 20
-94.7049355363
 10
269.7465662262
 20
-94.1039362638
 10
270.7876403041
 20
-93.4550269169
 10
271.7396132702
 20
-92.7620155539
 10
272.5968985684
 20
-92.0289690408
 10
273.3544653079
 20
-91.2601891862
 10
274.0078677857
 20
-90.4601874958
 10
274.5532715764
 20
-89.6336586978
 10
274.9874760335
 20
-88.7854531918
 10
275.3079330728
 20
-87.920548585
 10
275.5127621247
 20
-87.0440204814
 10
275.6007611711
 20
-86.1610126967
 10
275.5714137985
 20
-85.2767070714
 10
275.4248922291
 20
-84.3962930628
 10
275.1620563095
 20
-83.5249372902
 10
274.7844484655
 20
-82.6677532159
 10
274.2942846501
 20
-81.8297711368
 10
273.6944413395
 20
-81.0159086649
 10
272.9884386527
 20
-80.2309418689
 10
272.1804196942
 20
-79.4794772461
 10
271.2751262405
 20
-78.7659246896
 10
270.2778709137
 20
-78.0944716097
 10
269.1945060045
 20
-77.4690583599
 10
268.031389129
 20
-76.8933551139
 10
266.7953459195
 20
-76.3707403273
 10
265.493629969
 20
-75.9042809114
 10
264.1338802644
 20
-75.4967142356
 10
262.7240763575
 20
-75.1504320632
 10
261.2724915384
 20
-74.8674665156
 10
259.7876442839
 20
-74.6494781473
 10
258.2782482682
 20
-74.4977462007
 10
256.7531612272
 20
-74.4131610991
 10
255.2213329781
 20
-74.3962192215
 10
253.6917528982
 20
-74.4470199896
 10
252.1733971716
 20
-74.5652652844
 10
250.6751761134
 20
-74.7502611954
 10
249.2058818807
 20
-75.0009220931
 10
247.7741368761
 20
-75.3157769995
 10
246.3883431487
 20
-75.692978221
 10
245.056633087
 20
-76.1303121908
 10
243.7868216954
 20
-76.6252124593
 10
242.5863607319
 20
-77.1747747548
 10
241.4622949788
 20
-77.7757740273
  0
LWPOLYLINE
  5
122
330
1F
100
AcDbEntity
  8
0
  6
Continuous
 62
     7
370
    25
100
AcDbPolyline
 90
       49
 70
   128
 43
0.0
 10
221.3097517149
 20
-63.6914070978
 10
221.3520974907
 20
-62.920901661
 10
221.47841027
 20
-62.1146883939
 10
221.6865288062
 20
-61.2865618289
 10
221.9728921334
 20
-60.4506914412
 10
222.3326004957
 20
-59.6213792049
 10
222.7594991832
 20
-58.8128148823
 10
223.2462838412
 20
-58.0388332331
 10
223.7846254491
 20
-57.3126772978
 10
224.3653128327
 20
-56.646771806
 10
224.97841027
 20
-56.0525105852
 10
225.6134274938
 20
-55.5400616095
 10
226.2594991832
 20
-55.1181930232
 10
226.9055708727
 20
-54.7941231146
 10
227.5405880965
 20
-54.5733968097
 10
228.1536855338
 20
-54.4597907969
 10
228.7343729174
 20
-54.4552489065
 10
229.2727145253
 20
-54.5598488514
 10
229.7594991832
 20
-54.7718008977
 10
230.1863978708
 20
-55.087478487
 10
230.5461062331
 20
-55.5014802884
 10
230.8324695603
 20
-56.0067226161
 10
231.0405880965
 20
-56.5945606338
 10
231.1669008758
 20
-57.2549362702
 10
231.2092466515
 20
-57.976550315
 10
231.1669008758
 20
-58.7470557518
 10
231.0405880965
 20
-59.5532690189
 10
230.8324695603
 20
-60.3813955839
 10
230.5461062331
 20
-61.2172659716
 10
230.1863978708
 20
-62.0465782079
 10
229.7594991832
 20
-62.8551425305
 10
229.2727145253
 20
-63.6291241797
 10
228.7343729174
 20
-64.3552801149
 10
228.1536855338
 20
-65.0211856068
 10
227.5405880965
 20
-65.6154468276
 10
226.9055708727
 20
-66.1278958032
 10
226.2594991832
 20
-66.5497643896
 10
225.6134274938
 20
-66.8738342982
 10
224.97841027
 20
-67.094560603
 10
224.3653128327
 20
-67.2081666159
 10
223.7846254491
 20
-67.2127085063
 10
223.2462838412
 20
-67.1081085614
 10
222.7594991832
 20
-66.8961565151
 10
222.3326004957
 20
-66.5804789257
 10
221.9728921334
 20
-66.1664771244
 10
221.6865288062
 20
-65.6612347967
 10
221.47841027
 20
-65.0733967789
 10
221.3520974907
 20
-64.4130211425
 10
221.3097517149
 20
-63.6914070978
  0
LWPOLYLINE
  5
123
330
1F
100
AcDbEntity
  8
0
  6
Continuous
 62
     7
370
    25
100
AcDbPolyline
 90
       42
 70
   128
 43
0.0
 10
222.7239652773
 20
-62.8749989859
 10
222.7654002364
 20
-62.2278572409
 10
222.8887339133
 20
-61.5480441643
 10
223.0910754713
 20
-60.8514939987
 10
223.3676821956
 20
-60.1545332894
 10
223.7120706591
 20
-59.4734982049
 10
224.1161686881
 20
-58.8243516302
 10
224.5705045674
 20
-58.2223090109
 10
225.0644290489
 20
-57.6814817157
 10
225.5863649614
 20
-57.214546278
 10
226.1240785696
 20
-56.8324472688
 10
226.6649663222
 20
-56.5441407649
 10
227.1963502687
 20
-56.3563844265
 10
227.7057752198
 20
-56.273579103
 10
228.1813006864
 20
-56.2976656809
 10
228.6117807547
 20
-56.4280795914
 10
228.9871253366
 20
-56.6617640428
 10
229.2985366733
 20
-56.9932416698
 10
229.5387155469
 20
-57.4147429177
 10
229.7020323684
 20
-57.9163881544
 10
229.7846591298
 20
-58.4864192408
 10
229.7846591298
 20
-59.1114751314
 10
229.7020323684
 20
-59.7769050459
 10
229.5387155469
 20
-60.467111871
 10
229.2985366733
 20
-61.1659177439
 10
228.9871253366
 20
-61.856943247
 10
228.6117807547
 20
-62.5239913283
 10
228.1813006864
 20
-63.1514269461
 10
227.7057752198
 20
-63.7245435414
 10
227.1963502687
 20
-64.2299077469
 10
226.6649663222
 20
-64.6556742539
 10
226.1240785696
 20
-64.9918634564
 10
225.5863649614
 20
-65.2305953645
 10
225.0644290489
 20
-65.3662743044
 10
224.5705045674
 20
-65.395720077
 10
224.1161686881
 20
-65.3182424981
 10
223.7120706591
 20
-65.1356575767
 10
223.3676821956
 20
-64.8522449485
 10
223.0910754713
 20
-64.4746475653
 10
222.8887339133
 20
-64.0117159897
 10
222.7654002364
 20
-63.4743009456
 10
222.7239652773
 20
-62.8749989859
  0
LWPOLYLINE
  5
124
330
1F
100
AcDbEntity
  8
0
  6
Continuous
 62
     7
370
    25
100
AcDbPolyline
 90
       96
 70
   128
 43
0.0
 10
268.4985685329
 20
31.3249948866
 10
269.4152377492
 20
30.7956486726
 10
270.4098365524
 20
30.2213153843
 10
271.4780158148
 20
29.6045064351
 10
272.6151046604
 20
28.9479189736
 10
273.816130889
 20
28.2544240897
 10
275.0758427184
 20
27.5270542601
 10
276.3887317494
 20
26.7689900879
 10
277.7490570522
 20
25.9835463949
 10
279.1508702705
 20
25.1741577266
 10
280.5880416316
 20
24.3443633335
 10
282.054286751
 20
23.4977916956
 10
283.5431941117
 20
22.6381446551
 10
285.0482531008
 20
21.7691812299
 10
286.5628824781
 20
20.8947011758
 10
288.0804591548
 20
20.0185283718
 10
289.5943471543
 20
19.1444940984
 10
291.0979266294
 20
18.2764202853
 10
292.5846228098
 20
17.4181027983
 10
294.0479347513
 20
16.5732948413
 10
295.4814637631
 20
15.7456905448
 10
296.8789413875
 20
14.9389088116
 10
298.2342568105
 20
14.156477493
 10
299.5414835826
 20
13.4018179621
 10
300.7949055338
 20
12.6782301529
 10
301.9890417687
 20
11.988878131
 10
303.1186706334
 20
11.3367762573
 10
304.1788525483
 20
10.7247760072
 10
305.1649516077
 20
10.1555535024
 10
306.0726558512
 20
9.6315978078
 10
306.8979961192
 20
9.1552000485
 10
307.6373634087
 20
8.7284433906
 10
308.2875246546
 20
8.3531939324
 10
308.8456368673
 20
8.0310925444
 10
309.309259564
 20
7.7635476939
 10
309.6763654406
 20
7.5517292864
 10
309.9453492366
 20
7.3965635501
 10
310.1150347542
 20
7.2987289852
 10
310.1846800019
 20
7.2586533973
 10
310.1539804387
 20
7.2765120268
 10
310.0230703059
 20
7.3522267824
 10
309.7925220404
 20
7.4854665828
 10
309.463343771
 20
7.6756488043
 10
309.0369749104
 20
7.9219418283
 10
308.5152798614
 20
8.2232686782
 10
307.9005398635
 20
8.5783117283
 10
307.1954430183
 20
8.9855184656
 10
306.403072535
 20
9.4431082788
 10
305.5268932481
 20
9.949080244
 10
304.5707364667
 20
10.5012218745
 10
303.538783221
 20
11.0971187955
 10
302.4355459801
 20
11.7341653013
 10
301.2658489198
 20
12.4095757497
 10
300.0348068275
 20
13.1203967427
 10
298.7478027373
 20
13.8635200408
 10
297.4104643905
 20
14.635696155
 10
296.0286396274
 20
15.4335485556
 10
294.6083708161
 20
16.2535884371
 10
293.1558684309
 20
17.0922299737
 10
291.6774838949
 20
17.9458059993
 10
290.1796818078
 20
18.8105840432
 10
288.6690116768
 20
19.682782651
 10
287.1520792781
 20
20.5585879202
 10
285.6355177711
 20
21.4341701771
 10
284.1259586934
 20
22.3057007232
 10
282.6300029629
 20
23.1693685774
 10
281.1541920131
 20
24.0213971397
 10
279.70497919
 20
24.8580607061
 10
278.2887015325
 20
25.6757007597
 10
276.9115520624
 20
26.4707419685
 10
275.579552704
 20
27.2397078197
 10
274.2985279515
 20
27.9792358212
 10
273.0740794002
 20
28.6860922053
 10
271.9115612522
 20
29.3571860688
 10
270.8160569034
 20
29.989582889
 10
269.7923567157
 20
30.5805173555
 10
268.8449370695
 20
31.1274054623
 10
267.9779407898
 20
31.6278558068
 10
267.1951590309
 20
32.079680047
 10
266.5000146982
 20
32.4809024704
 10
265.8955474809
 20
32.8297686336
 10
265.3844005604
 20
33.1247530334
 10
264.9688090521
 20
33.3645657782
 10
264.650590232
 20
33.5481582279
 10
264.43113559
 20
33.6747275794
 10
264.3114047454
 20
33.7437203771
 10
264.2919212507
 20
33.7548349331
 10
264.3727703023
 20
33.7080226463
 10
264.5535983678
 20
33.6034882148
 10
264.8336147322
 20
33.4416887412
 10
265.2115949551
 20
33.2233317334
 10
265.6858862251
 20
32.949372011
 10
266.2544145874
 20
32.6210075301
 10
266.9146940118
 20
32.2396741452
 10
267.6638372646
 20
31.80703933
 10
268.4985685329
 20
31.3249948866
  0
SPLINE
  5
125
330
1F
100
AcDbEntity
  8
0
  6
Continuous
 62
     7
370
    25
100
AcDbSpline
210
0.0
220
0.0
230
1.0
 70
     8
 71
     3
 72
    27
 73
    23
 74
     0
 42
0.00000001
 43
0.00000001
 40
0.0
 40
0.0
 40
0.0
 40
0.0
 40
0.0170753864982201
 40
0.0695700909897281
 40
0.121330732441028
 40
0.1730987734069827
 40
0.225989386996912
 40
0.2788826038278474
 40
0.3331656670057763
 40
0.3874408721708577
 40
0.4412093450860894
 40
0.4949712105840237
 40
0.5470029995904727
 40
0.599039638297255
 40
0.650871595367634
 40
0.7027108925393111
 40
0.7561268954780768
 40
0.8095419814325072
 40
0.8639156547221144
 40
0.9182804460046935
 40
0.9715186303827791
 40
1.0
 40
1.0
 40
1.0
 40
1.0
 10
260.0140297028587
 20
16.61853102886509
 30
0.0
 10
260.0728798173569
 20
16.57790248456033
 30
0.0
 10
260.3126523004462
 20
16.41236997820348
 30
0.0
 10
260.8606759739793
 20
16.27077413331912
 30
0.0
 10
261.6354349295083
 20
16.2071251953843
 30
0.0
 10
262.4946140410325
 20
16.30591342872397
 30
0.0
 10
263.4054729708557
 20
16.56373767425018
 30
0.0
 10
264.3466006466693
 20
16.98313868444815
 30
0.0
 10
265.2774726466956
 20
17.56679092430885
 30
0.0
 10
266.1616233749117
 20
18.30154211627591
 30
0.0
 10
266.9541519427407
 20
19.17216628754825
 30
0.0
 10
267.6248271102067
 20
20.13925934252853
 30
0.0
 10
268.1509532886303
 20
21.17888964844747
 30
0.0
 10
268.5311805132068
 20
22.25249272913152
 30
0.0
 10
268.7594533890449
 20
23.34062096962988
 30
0.0
 10
268.8457453600619
 20
24.42108076073835
 30
0.0
 10
268.7863495455251
 20
25.46173670550461
 30
0.0
 10
268.5912220003007
 20
26.43564412521299
 30
0.0
 10
268.2682452607766
 20
27.29847913410246
 30
0.0
 10
267.8341127361474
 20
28.00620209947516
 30
0.0
 10
267.4010549574933
 20
28.48301490490393
 30
0.0
 10
267.0965664255893
 20
28.64602244801467
 30
0.0
 10
266.990444328767
 20
28.70283477577162
 30
0.0
  0
LWPOLYLINE
  5
126
330
1F
100
AcDbEntity
  8
0
  6
Continuous
 62
     7
370
    25
100
AcDbPolyline
 90
       83
 70
   128
 43
0.0
 10
273.0947626106
 20
28.6716685231
 10
272.3707659198
 20
29.0897665734
 10
271.7340096048
 20
29.4575009837
 10
271.1882304046
 20
29.7727137424
 10
270.7366311688
 20
30.0335550557
 10
270.3818620611
 20
30.2384942029
 10
270.1260050078
 20
30.3863285197
 10
269.9705614798
 20
30.4761904555
 10
269.9164436816
 20
30.5075526648
 10
269.9639691978
 20
30.4802311016
 10
270.1128591299
 20
30.3943860998
 10
270.3622397325
 20
30.2505214319
 10
270.7106475412
 20
30.0494813531
 10
271.1560379602
 20
29.7924456464
 10
271.6957972617
 20
29.4809226995
 10
272.3267579233
 20
29.1167406531
 10
273.045217217
 20
28.7020366721
 10
273.846958938
 20
28.2392444045
 10
274.727278147
 20
27.7310796992
 10
275.681008781
 20
27.1805246688
 10
276.7025539692
 20
26.5908101892
 10
277.7859188784
 20
25.9653969394
 10
278.9247458925
 20
25.3079550931
 10
280.1123519217
 20
24.6223427803
 10
281.3417676216
 20
23.9125834469
 10
282.6057782921
 20
23.1828422428
 10
283.8969662159
 20
22.4374015795
 10
285.2077541888
 20
21.6806359993
 10
286.5304499858
 20
20.9169865035
 10
287.857291502
 20
20.1509344909
 10
289.1804923039
 20
19.3869754595
 10
290.4922873229
 20
18.6295926246
 10
291.7849784244
 20
17.8832306098
 10
293.0509795827
 20
17.1522693642
 10
294.2828613999
 20
16.4409984591
 10
295.4733947035
 20
15.7535919149
 10
296.6155929708
 20
15.0940837066
 10
297.702753328
 20
14.4663440905
 10
298.728495886
 20
13.8740568925
 10
299.6868011795
 20
13.3206978892
 10
300.5720454921
 20
12.8095144113
 10
301.3790338581
 20
12.3435062867
 10
302.1030305488
 20
11.9254082364
 10
302.7397868639
 20
11.5576738261
 10
303.2855660641
 20
11.2424610674
 10
303.7371652999
 20
10.9816197542
 10
304.0919344076
 20
10.7766806069
 10
304.3477914609
 20
10.6288462901
 10
304.5032349889
 20
10.5389843543
 10
304.5573527871
 20
10.507622145
 10
304.5098272709
 20
10.5349437082
 10
304.3609373388
 20
10.62078871
 10
304.1115567362
 20
10.7646533779
 10
303.7631489275
 20
10.9656934568
 10
303.3177585084
 20
11.2227291635
 10
302.777999207
 20
11.5342521103
 10
302.1470385454
 20
11.8984341567
 10
301.4285792517
 20
12.3131381377
 10
300.6268375307
 20
12.7759304054
 10
299.7465183217
 20
13.2840951107
 10
298.7927876877
 20
13.834650141
 10
297.7712424994
 20
14.4243646206
 10
296.6878775902
 20
15.0497778704
 10
295.5490505762
 20
15.7072197168
 10
294.3614445469
 20
16.3928320295
 10
293.132028847
 20
17.1025913629
 10
291.8680181766
 20
17.832332567
 10
290.5768302528
 20
18.5777732303
 10
289.2660422799
 20
19.3345388105
 10
287.9433464829
 20
20.0981883064
 10
286.6165049666
 20
20.8642403189
 10
285.2933041648
 20
21.6281993503
 10
283.9815091457
 20
22.3855821852
 10
282.6888180443
 20
23.1319442
 10
281.4228168859
 20
23.8629054456
 10
280.1909350688
 20
24.5741763507
 10
279.0004017651
 20
25.2615828949
 10
277.8582034979
 20
25.9210911032
 10
276.7710431407
 20
26.5488307193
 10
275.7453005827
 20
27.1411179174
 10
274.7869952891
 20
27.6944769207
 10
273.9017509766
 20
28.2056603986
 10
273.0947626106
 20
28.6716685231
  0
LWPOLYLINE
  5
127
330
1F
100
AcDbEntity
  8
0
  6
Continuous
 62
     7
370
    25
100
AcDbPolyline
 90
       49
 70
   128
 43
0.0
 10
247.9422193468
 20
25.9303733214
 10
247.9845651225
 20
26.7008787582
 10
248.1108779018
 20
27.5070920253
 10
248.318996438
 20
28.3352185903
 10
248.6053597652
 20
29.171088978
 10
248.9650681275
 20
30.0004012143
 10
249.3919668151
 20
30.8089655369
 10
249.8787514731
 20
31.5829471861
 10
250.4170930809
 20
32.3091031214
 10
250.9977804646
 20
32.9750086132
 10
251.6108779018
 20
33.569269834
 10
252.2458951256
 20
34.0817188097
 10
252.8919668151
 20
34.503587396
 10
253.5380385046
 20
34.8276573046
 10
254.1730557283
 20
35.0483836094
 10
254.7861531656
 20
35.1619896223
 10
255.3668405492
 20
35.1665315127
 10
255.9051821571
 20
35.0619315678
 10
256.3919668151
 20
34.8499795215
 10
256.8188655027
 20
34.5343019322
 10
257.178573865
 20
34.1203001308
 10
257.4649371922
 20
33.6150578031
 10
257.6730557283
 20
33.0272197853
 10
257.7993685076
 20
32.366844149
 10
257.8417142834
 20
31.6452301042
 10
257.7993685076
 20
30.8747246674
 10
257.6730557283
 20
30.0685114003
 10
257.4649371922
 20
29.2403848353
 10
257.178573865
 20
28.4045144476
 10
256.8188655027
 20
27.5752022113
 10
256.3919668151
 20
26.7666378887
 10
255.9051821571
 20
25.9926562395
 10
255.3668405492
 20
25.2665003043
 10
254.7861531656
 20
24.6005948124
 10
254.1730557283
 20
24.0063335916
 10
253.5380385046
 20
23.493884616
 10
252.8919668151
 20
23.0720160296
 10
252.2458951256
 20
22.747946121
 10
251.6108779018
 20
22.5272198162
 10
250.9977804646
 20
22.4136138033
 10
250.4170930809
 20
22.4090719129
 10
249.8787514731
 20
22.5136718578
 10
249.3919668151
 20
22.7256239041
 10
248.9650681275
 20
23.0413014934
 10
248.6053597652
 20
23.4553032948
 10
248.318996438
 20
23.9605456225
 10
248.1108779018
 20
24.5483836403
 10
247.9845651225
 20
25.2087592767
 10
247.9422193468
 20
25.9303733214
  0
LWPOLYLINE
  5
128
330
1F
100
AcDbEntity
  8
0
  6
Continuous
 62
     7
370
    25
100
AcDbPolyline
 90
       42
 70
   128
 43
0.0
 10
249.3564329092
 20
26.7467814332
 10
249.3978678682
 20
27.3939231783
 10
249.5212015452
 20
28.0737362549
 10
249.7235431031
 20
28.7702864205
 10
250.0001498274
 20
29.4672471298
 10
250.344538291
 20
30.1482822143
 10
250.74863632
 20
30.797428789
 10
251.2029721992
 20
31.3994714083
 10
251.6968966807
 20
31.9402987035
 10
252.2188325933
 20
32.4072341412
 10
252.7565462014
 20
32.7893331504
 10
253.297433954
 20
33.0776396543
 10
253.8288179006
 20
33.2653959927
 10
254.3382428517
 20
33.3482013162
 10
254.8137683183
 20
33.3241147383
 10
255.2442483865
 20
33.1937008278
 10
255.6195929684
 20
32.9600163763
 10
255.9310043051
 20
32.6285387494
 10
256.1711831788
 20
32.2070375015
 10
256.3345000003
 20
31.7053922648
 10
256.4171267616
 20
31.1353611784
 10
256.4171267616
 20
30.5103052878
 10
256.3345000003
 20
29.8448753733
 10
256.1711831788
 20
29.1546685482
 10
255.9310043051
 20
28.4558626753
 10
255.6195929684
 20
27.7648371722
 10
255.2442483865
 20
27.0977890909
 10
254.8137683183
 20
26.4703534731
 10
254.3382428517
 20
25.8972368778
 10
253.8288179006
 20
25.3918726723
 10
253.297433954
 20
24.9661061653
 10
252.7565462014
 20
24.6299169628
 10
252.2188325933
 20
24.3911850547
 10
251.6968966807
 20
24.2555061148
 10
251.2029721992
 20
24.2260603422
 10
250.74863632
 20
24.3035379211
 10
250.344538291
 20
24.4861228425
 10
250.0001498274
 20
24.7695354707
 10
249.7235431031
 20
25.1471328539
 10
249.5212015452
 20
25.6100644295
 10
249.3978678682
 20
26.1474794736
 10
249.3564329092
 20
26.7467814332
  0
LWPOLYLINE
  5
129
330
1F
100
AcDbEntity
  8
0
  6
Continuous
 62
     1
370
    25
100
AcDbPolyline
 90
       37
 70
   128
 43
0.0
 10
236.866100901
 20
-33.6107144152
 10
238.1454970343
 20
-32.9194365191
 10
239.5012366419
 20
-32.278483176
 10
240.9273914194
 20
-31.6906571116
 10
242.4177251548
 20
-31.1585287399
 10
243.965720998
 20
-30.6844249228
 10
245.564609957
 20
-30.2704187956
 10
247.2074004971
 20
-29.9183207018
 10
248.8869091134
 20
-29.6296702768
 10
250.5957917419
 20
-29.4057297155
 10
252.3265758738
 20
-29.2474782529
 10
254.0716932305
 20
-29.1556078824
 10
255.8235128576
 20
-29.1305203298
 10
257.5743744938
 20
-29.1723252966
 10
259.3166220666
 20
-29.2808399803
 10
261.0426371707
 20
-29.4555898738
 10
262.7448723811
 20
-29.6958108402
 10
264.4158842564
 20
-30.0004524544
 10
266.0483658868
 20
-30.3681825962
 10
267.6351788456
 20
-30.7973932751
 10
269.1693844034
 20
-31.2862076621
 10
270.6442738696
 20
-31.8324882963
 10
272.0533979279
 20
-32.4338464314
 10
273.3905948374
 20
-33.0876524814
 10
274.6500173761
 20
-33.7910475186
 10
275.8261584098
 20
-34.5409557757
 10
276.9138749729
 20
-35.3340980945
 10
277.9084107577
 20
-36.1670062655
 10
278.8054169123
 20
-37.0360381933
 10
279.600971057
 20
-37.9373938222
 10
280.2915944358
 20
-38.8671317536
 10
280.8742671286
 20
-39.8211864799
 10
281.3464412558
 20
-40.7953861626
 10
281.7060521202
 20
-41.7854708744
 10
281.9515272349
 20
-42.7871112268
 10
282.0817931997
 20
-43.7959273012
 10
282.1044306025
 20
-44.4281218969
  0
LWPOLYLINE
  5
12A
330
1F
100
AcDbEntity
  8
0
  6
Continuous
 62
     1
370
    25
100
AcDbPolyline
 90
       13
 70
   128
 43
0.0
 10
229.1044306025
 20
-44.4281218969
 10
229.1487938468
 20
-43.5432914461
 10
229.3079352395
 20
-42.53585664
 10
229.5820645155
 20
-41.5366962284
 10
229.9699829774
 20
-40.5501792855
 10
230.4699943564
 20
-39.580619599
 10
231.0799122299
 20
-38.6322568067
 10
231.7970695823
 20
-37.7092378577
 10
232.618330467
 20
-36.815598879
 10
233.5401037191
 20
-35.9552475267
 10
234.5583586586
 20
-35.1319458981
 10
235.6686427158
 20
-34.3492940818
 10
236.866100901
 20
-33.6107144152
  0
LWPOLYLINE
  5
12B
330
1F
100
AcDbEntity
  8
0
  6
Continuous
 62
     1
370
    25
100
AcDbPolyline
 90
       40
 70
   128
 43
0.0
 10
243.0793043366
 20
-12.7024620632
 10
243.995973553
 20
-13.2318082772
 10
244.9905723561
 20
-13.8061415654
 10
246.0587516186
 20
-14.4229505146
 10
247.1958404642
 20
-15.0795379761
 10
248.3968666927
 20
-15.77303286
 10
249.6565785222
 20
-16.5004026896
 10
250.9694675531
 20
-17.2584668618
 10
252.329792856
 20
-18.0439105548
 10
253.7316060742
 20
-18.8532992232
 10
255.1687774354
 20
-19.6830936162
 10
256.6350225547
 20
-20.5296652541
 10
258.1239299155
 20
-21.3893122946
 10
259.6289889045
 20
-22.2582757198
 10
261.1436182818
 20
-23.1327557739
 10
262.6611949586
 20
-24.008928578
 10
264.175082958
 20
-24.8829628513
 10
265.6786624332
 20
-25.7510366644
 10
267.1653586136
 20
-26.6093541515
 10
268.628670555
 20
-27.4541621084
 10
270.0621995668
 20
-28.2817664049
 10
271.4596771913
 20
-29.0885481382
 10
272.8149926143
 20
-29.8709794567
 10
274.1222193864
 20
-30.6256389877
 10
275.3756413375
 20
-31.3492267968
 10
276.5697775724
 20
-32.0385788187
 10
277.6994064371
 20
-32.6906806925
 10
278.759588352
 20
-33.3026809425
 10
279.7456874114
 20
-33.8719034473
 10
280.653391655
 20
-34.3958591419
 10
281.478731923
 20
-34.8722569012
 10
282.2180992124
 20
-35.2990135591
 10
282.8682604584
 20
-35.6742630173
 10
283.426372671
 20
-35.9963644053
 10
283.8899953677
 20
-36.2639092559
 10
284.2571012443
 20
-36.4757276633
 10
284.5260850403
 20
-36.6308933996
 10
284.6957705579
 20
-36.7287279645
 10
284.7654158056
 20
-36.7688035524
 10
284.7673072215
 20
-36.769869574
  0
LWPOLYLINE
  5
12C
330
1F
100
AcDbEntity
  8
0
  6
Continuous
 62
     1
370
    25
100
AcDbPolyline
 90
       11
 70
   128
 43
0.0
 10
238.8679608546
 20
-10.2698695156
 10
238.8726570544
 20
-10.2726220166
 10
238.953506106
 20
-10.3194343034
 10
239.1343341715
 20
-10.4239687349
 10
239.4143505359
 20
-10.5857682085
 10
239.7923307588
 20
-10.8041252163
 10
240.2666220289
 20
-11.0780849387
 10
240.8351503911
 20
-11.4064494196
 10
241.4954298156
 20
-11.7877828045
 10
242.2445730683
 20
-12.2204176197
 10
243.0793043366
 20
-12.7024620632
  0
ENDSEC
  0
SECTION
  2
OBJECTS
  0
DICTIONARY
  5
C
330
0
100
AcDbDictionary
281
     1
  3
ACAD_GROUP
350
D
  3
ACAD_LAYOUT
350
1A
  3
ACAD_MLINESTYLE
350
17
  3
ACAD_PLOTSETTINGS
350
19
  3
ACAD_PLOTSTYLENAME
350
E
  3
ACAD_SCALELIST
350
47
  3
DWGPROPS
350
12D
  0
DICTIONARY
  5
D
102
{ACAD_REACTORS
330
C
102
}
330
C
100
AcDbDictionary
281
     1
  0
DICTIONARY
  5
1A
102
{ACAD_REACTORS
330
C
102
}
330
C
100
AcDbDictionary
281
     1
  3
Layout1
350
1E
  3
Layout2
350
26
  3
Model
350
22
  0
DICTIONARY
  5
17
102
{ACAD_REACTORS
330
C
102
}
330
C
100
AcDbDictionary
281
     1
  3
Standard
350
18
  0
DICTIONARY
  5
19
102
{ACAD_REACTORS
330
C
102
}
330
C
100
AcDbDictionary
281
     1
  0
ACDBDICTIONARYWDFLT
  5
E
102
{ACAD_REACTORS
330
C
102
}
330
C
100
AcDbDictionary
281
     1
  3
Normal
350
F
100
AcDbDictionaryWithDefault
340
F
  0
DICTIONARY
  5
47
102
{ACAD_REACTORS
330
C
102
}
330
C
100
AcDbDictionary
281
     1
  3
A0
350
48
  3
A1
350
49
  3
A2
350
4A
  3
A3
350
4B
  3
A4
350
4C
  3
A5
350
4D
  3
A6
350
4E
  3
A7
350
4F
  3
A8
350
50
  3
A9
350
51
  3
B0
350
52
  3
B1
350
53
  3
B2
350
54
  3
B3
350
55
  3
B4
350
56
  3
B5
350
57
  3
B6
350
58
  3
B7
350
59
  3
B8
350
5A
  3
B9
350
5B
  3
C0
350
5C
  3
C1
350
5D
  3
C2
350
5E
  3
C3
350
5F
  3
C4
350
60
  3
C5
350
61
  3
C6
350
62
  3
C7
350
63
  3
C8
350
64
  3
C9
350
65
  3
D0
350
66
  3
D1
350
67
  3
D2
350
68
  0
XRECORD
  5
12D
102
{ACAD_REACTORS
330
C
102
}
330
C
100
AcDbXrecord
280
     1
  1
DWGPROPS COOKIE
  2

  3

  4

  6

  7

  8
b.kav
  9

300
=
301
=
302
=
303
=
304
=
305
=
306
=
307
=
308
=
309
=
 40
0.0
 41
2459741.478160382
 42
2459741.478160567
  1

 90
        0
  0
LAYOUT
  5
1E
102
{ACAD_REACTORS
330
1A
102
}
330
1A
100
AcDbPlotSettings
  1

  2
none_device
  4

  6

 40
0.0
 41
0.0
 42
0.0
 43
0.0
 44
0.0
 45
0.0
 46
0.0
 47
0.0
 48
0.0
 49
0.0
140
0.0
141
0.0
142
1.0
143
1.0
 70
   688
 72
     1
 73
     0
 74
     5
  7

 75
    16
147
1.0
148
0.0
149
0.0
100
AcDbLayout
  1
Layout1
 70
     1
 71
     1
 10
0.0
 20
0.0
 11
420.0
 21
297.0
 12
0.0
 22
0.0
 32
0.0
 14
1.0000000000E+20
 24
1.0000000000E+20
 34
1.0000000000E+20
 15
-1.0000000000E+20
 25
-1.0000000000E+20
 35
-1.0000000000E+20
146
0.0
 13
0.0
 23
0.0
 33
0.0
 16
1.0
 26
0.0
 36
0.0
 17
0.0
 27
1.0
 37
0.0
 76
     0
330
1B
  0
LAYOUT
  5
26
102
{ACAD_REACTORS
330
1A
102
}
330
1A
100
AcDbPlotSettings
  1

  2
none_device
  4

  6

 40
0.0
 41
0.0
 42
0.0
 43
0.0
 44
0.0
 45
0.0
 46
0.0
 47
0.0
 48
0.0
 49
0.0
140
0.0
141
0.0
142
1.0
143
1.0
 70
   688
 72
     1
 73
     0
 74
     5
  7

 75
    16
147
1.0
148
0.0
149
0.0
100
AcDbLayout
  1
Layout2
 70
     1
 71
     2
 10
0.0
 20
0.0
 11
0.0
 21
0.0
 12
0.0
 22
0.0
 32
0.0
 14
0.0
 24
0.0
 34
0.0
 15
0.0
 25
0.0
 35
0.0
146
0.0
 13
0.0
 23
0.0
 33
0.0
 16
1.0
 26
0.0
 36
0.0
 17
0.0
 27
1.0
 37
0.0
 76
     0
330
23
  0
LAYOUT
  5
22
102
{ACAD_REACTORS
330
1A
102
}
330
1A
100
AcDbPlotSettings
  1

  2
none_device
  4
Letter_(8.50_x_11.00_Inches)
  6

 40
6.35
 41
6.35
 42
6.35000508
 43
6.35000508
 44
215.9
 45
279.4
 46
0.0
 47
0.0
 48
0.0
 49
0.0
140
0.0
141
0.0
142
1.0
143
1.0
 70
  1712
 72
     1
 73
     0
 74
     0
  7

 75
     0
147
1.0
148
0.0
149
0.0
100
AcDbLayout
  1
Model
 70
     1
 71
     0
 10
0.0
 20
0.0
 11
279.4
 21
215.9
 12
0.0
 22
0.0
 32
0.0
 14
0.0
 24
0.0
 34
0.0
 15
279.4
 25
215.9
 35
0.0
146
0.0
 13
0.0
 23
0.0
 33
0.0
 16
1.0
 26
0.0
 36
0.0
 17
0.0
 27
1.0
 37
0.0
 76
     0
330
1F
331
29
  0
MLINESTYLE
  5
18
102
{ACAD_REACTORS
330
17
102
}
330
17
100
AcDbMlineStyle
  2
Standard
 70
     0
  3

 62
   256
 51
90.0
 52
90.0
 71
     2
 49
0.5
 62
   256
  6
BYLAYER
 49
-0.5
 62
   256
  6
BYLAYER
  0
ACDBPLACEHOLDER
  5
F
102
{ACAD_REACTORS
330
E
102
}
330
E
  0
SCALE
  5
48
102
{ACAD_REACTORS
330
47
102
}
330
47
100
AcDbScale
 70
     0
300
1:1
140
1.0
141
1.0
290
     1
  0
SCALE
  5
49
102
{ACAD_REACTORS
330
47
102
}
330
47
100
AcDbScale
 70
     0
300
1:2
140
1.0
141
2.0
290
     0
  0
SCALE
  5
4A
102
{ACAD_REACTORS
330
47
102
}
330
47
100
AcDbScale
 70
     0
300
1:4
140
1.0
141
4.0
290
     0
  0
SCALE
  5
4B
102
{ACAD_REACTORS
330
47
102
}
330
47
100
AcDbScale
 70
     0
300
1:5
140
1.0
141
5.0
290
     0
  0
SCALE
  5
4C
102
{ACAD_REACTORS
330
47
102
}
330
47
100
AcDbScale
 70
     0
300
1:8
140
1.0
141
8.0
290
     0
  0
SCALE
  5
4D
102
{ACAD_REACTORS
330
47
102
}
330
47
100
AcDbScale
 70
     0
300
1:10
140
1.0
141
10.0
290
     0
  0
SCALE
  5
4E
102
{ACAD_REACTORS
330
47
102
}
330
47
100
AcDbScale
 70
     0
300
1:16
140
1.0
141
16.0
290
     0
  0
SCALE
  5
4F
102
{ACAD_REACTORS
330
47
102
}
330
47
100
AcDbScale
 70
     0
300
1:20
140
1.0
141
20.0
290
     0
  0
SCALE
  5
50
102
{ACAD_REACTORS
330
47
102
}
330
47
100
AcDbScale
 70
     0
300
1:30
140
1.0
141
30.0
290
     0
  0
SCALE
  5
51
102
{ACAD_REACTORS
330
47
102
}
330
47
100
AcDbScale
 70
     0
300
1:40
140
1.0
141
40.0
290
     0
  0
SCALE
  5
52
102
{ACAD_REACTORS
330
47
102
}
330
47
100
AcDbScale
 70
     0
300
1:50
140
1.0
141
50.0
290
     0
  0
SCALE
  5
53
102
{ACAD_REACTORS
330
47
102
}
330
47
100
AcDbScale
 70
     0
300
1:100
140
1.0
141
100.0
290
     0
  0
SCALE
  5
54
102
{ACAD_REACTORS
330
47
102
}
330
47
100
AcDbScale
 70
     0
300
2:1
140
2.0
141
1.0
290
     0
  0
SCALE
  5
55
102
{ACAD_REACTORS
330
47
102
}
330
47
100
AcDbScale
 70
     0
300
4:1
140
4.0
141
1.0
290
     0
  0
SCALE
  5
56
102
{ACAD_REACTORS
330
47
102
}
330
47
100
AcDbScale
 70
     0
300
8:1
140
8.0
141
1.0
290
     0
  0
SCALE
  5
57
102
{ACAD_REACTORS
330
47
102
}
330
47
100
AcDbScale
 70
     0
300
10:1
140
10.0
141
1.0
290
     0
  0
SCALE
  5
58
102
{ACAD_REACTORS
330
47
102
}
330
47
100
AcDbScale
 70
     0
300
100:1
140
100.0
141
1.0
290
     0
  0
SCALE
  5
59
102
{ACAD_REACTORS
330
47
102
}
330
47
100
AcDbScale
 70
     0
300
1/128" = 1'-0"
140
0.0078125
141
12.0
290
     0
  0
SCALE
  5
5A
102
{ACAD_REACTORS
330
47
102
}
330
47
100
AcDbScale
 70
     0
300
1/64" = 1'-0"
140
0.015625
141
12.0
290
     0
  0
SCALE
  5
5B
102
{ACAD_REACTORS
330
47
102
}
330
47
100
AcDbScale
 70
     0
300
1/32" = 1'-0"
140
0.03125
141
12.0
290
     0
  0
SCALE
  5
5C
102
{ACAD_REACTORS
330
47
102
}
330
47
100
AcDbScale
 70
     0
300
1/16" = 1'-0"
140
0.0625
141
12.0
290
     0
  0
SCALE
  5
5D
102
{ACAD_REACTORS
330
47
102
}
330
47
100
AcDbScale
 70
     0
300
3/32" = 1'-0"
140
0.09375
141
12.0
290
     0
  0
SCALE
  5
5E
102
{ACAD_REACTORS
330
47
102
}
330
47
100
AcDbScale
 70
     0
300
1/8" = 1'-0"
140
0.125
141
12.0
290
     0
  0
SCALE
  5
5F
102
{ACAD_REACTORS
330
47
102
}
330
47
100
AcDbScale
 70
     0
300
3/16" = 1'-0"
140
0.1875
141
12.0
290
     0
  0
SCALE
  5
60
102
{ACAD_REACTORS
330
47
102
}
330
47
100
AcDbScale
 70
     0
300
1/4" = 1'-0"
140
0.25
141
12.0
290
     0
  0
SCALE
  5
61
102
{ACAD_REACTORS
330
47
102
}
330
47
100
AcDbScale
 70
     0
300
3/8" = 1'-0"
140
0.375
141
12.0
290
     0
  0
SCALE
  5
62
102
{ACAD_REACTORS
330
47
102
}
330
47
100
AcDbScale
 70
     0
300
1/2" = 1'-0"
140
0.5
141
12.0
290
     0
  0
SCALE
  5
63
102
{ACAD_REACTORS
330
47
102
}
330
47
100
AcDbScale
 70
     0
300
3/4" = 1'-0"
140
0.75
141
12.0
290
     0
  0
SCALE
  5
64
102
{ACAD_REACTORS
330
47
102
}
330
47
100
AcDbScale
 70
     0
300
1" = 1'-0"
140
1.0
141
12.0
290
     0
  0
SCALE
  5
65
102
{ACAD_REACTORS
330
47
102
}
330
47
100
AcDbScale
 70
     0
300
1-1/2" = 1'-0"
140
1.5
141
12.0
290
     0
  0
SCALE
  5
66
102
{ACAD_REACTORS
330
47
102
}
330
47
100
AcDbScale
 70
     0
300
3" = 1'-0"
140
3.0
141
12.0
290
     0
  0
SCALE
  5
67
102
{ACAD_REACTORS
330
47
102
}
330
47
100
AcDbScale
 70
     0
300
6" = 1'-0"
140
6.0
141
12.0
290
     0
  0
SCALE
  5
68
102
{ACAD_REACTORS
330
47
102
}
330
47
100
AcDbScale
 70
     0
300
1'-0" = 1'-0"
140
12.0
141
12.0
290
     0
  0
ENDSEC
  0
EOF
